Cifra Club

Me Beija

Mariana Rios

Cifra: Principal (violão e guitarra)
tom: Bbm (forma dos acordes no tom de Am) Capotraste na 1ª casa
[Primeira Parte]

[Tab - Primeira Parte]

E|----------------------------------------------------|
B|---1-2------------1-2-------------------------------|
G|-3-----3-1-----3-----3-1----------------------------|
D|----------------------------------------------------|
A|----------------------------------------------------|
E|----------------------------------------------------|

F         G
E se congelasse o tempo
Am
Menos pra você e pra mim
F            G
Só nós dois aqui na terra
  Am
Não teria preconceito

Não iria ter mais guerra
F
No mundo mais amor
    G
E o que a gente criou
       Am
Escrito num livro de histórias

Daqui mil anos

Uma matéria pros seres humanos
F           G
Nosso nome, nosso pensamento
           Am
E o quanto era intenso
        Am
E sempre vai ser

[Pré-Refrão]

        F
Mas se quer saber
          G
Deixa o tempo correr
          Am
Nosso amor não tem preço nem idade

Nem prazo de validade
   F
Quer saber
         G
Deixa o tempo correr
           Am
Não tenho um pingo de curiosidade
C
Deixa isso pra mais tarde

[Refrão]

[Tab - Refrão]

E|----------------------------------------------------|
B|---1-2------------1-2-------------------------------|
G|-3-----3-1-----3-----3-1----------------------------|
D|----------------------------------------------------|
A|----------------------------------------------------|
E|----------------------------------------------------|

F                     G
Me beija, me beija, me beija, me beija
              Am C
Que eu já tô com saudade
F                      G
Me beija, me beija, me beija, me beija
              Am C
Que eu já tô com saudade

[Primeira Parte]

[Tab - Primeira Parte]

E|----------------------------------------------------|
B|---1-2------------1-2-------------------------------|
G|-3-----3-1-----3-----3-1----------------------------|
D|----------------------------------------------------|
A|----------------------------------------------------|
E|----------------------------------------------------|

F         G
E se congelasse o tempo
Am
Menos pra você e pra mim
F            G
Só nós dois aqui na terra
  Am
Não teria preconceito

Não iria ter mais guerra
F
No mundo mais amor
    G
E o que a gente criou
       Am
Escrito num livro de histórias

Daqui mil anos

Uma matéria pros seres humanos
F           G
Nosso nome, nosso pensamento
           Am
E o quanto era intenso
        Am
E sempre vai ser

[Pré-Refrão]

        F
Mas se quer saber
          G
Deixa o tempo correr
          Am
Nosso amor não tem preço nem idade

Nem prazo de validade
   F
Quer saber
         G
Deixa o tempo correr
           Am
Não tenho um pingo de curiosidade
C
Deixa isso pra mais tarde

[Refrão]

[Tab - Refrão]

E|----------------------------------------------------|
B|---1-2------------1-2-------------------------------|
G|-3-----3-1-----3-----3-1----------------------------|
D|----------------------------------------------------|
A|----------------------------------------------------|
E|----------------------------------------------------|

F                     G
Me beija, me beija, me beija, me beija
              Am C
Que eu já tô com saudade
F                      G
Me beija, me beija, me beija, me beija
              Am C
Que eu já tô com saudade

F                     G
Me beija, me beija, me beija, me beija
              Am C
Que eu já tô com saudade
F                      G
Me beija, me beija, me beija, me beija
              Am C
Que eu já tô com saudade
00:00 / 00:00
Outros vídeos desta música
Repetir
Outros vídeos desta música
Composição de Danillo Dávilla / Elcio Di Carvalho / Junior Pepato / Lari Ferrreira / Thales Lessa
Colaboração e revisão:
  • Vitor Farias
108 exibições
    • ½ Tom
    • Am
    • Bbm
    • Bm
    • Cm
    • C#m
    • Dm
    • Ebm
    • Em
    • Fm
    • F#m
    • Gm
    • G#m
  • Adicionar à lista

    0 comentários

    Ver todos os comentários

    Entre para oCifra Club PRO

    Tenha acesso a benefícios exclusivos no App e no Site

    • Chega de anúncios

    • Prioridade de compra em lançamentos

    • Mais recursos no app do Afinador

    • Atendimento Prioritário

    • Descontos nos produtos Cifra Club

    • Ajude a produzir mais conteúdo

    00:00 / 00:00

    Cifra Club Pro

    Aproveite o Cifra Club com benefícios exclusivos e sem anúncios
    Cifra Club Pro
    Aproveite o Cifra Club com benefícios exclusivos e sem anúncios
    OK