Notificações Amigos pendentes

      Megadeth

      Tornado of Souls

      111.028 exibições
      Tom: C
      Intro:
      
      (Riff 1 - 2x)
      
         B5                      B5
      E|-----------------------------------------
      B|-----------------------------------------
      G|---------------------7-------------------
      D|---------------7-------------------------
      A|-9-----------------------9-9-------------
      E|-7-7-7-7-7-7-7---7-7---7-7-7-------------
      
           H.N . . . . . . . . . 
      
         B5
      E|-----------------------------------------
      B|-----------------------------------------
      G|---------------------7-------------------
      D|---------------7-----------7-------------
      A|-9---------------------------------------
      E|-7-7-7-7-7-7-7---7-7---7-7---------------
      
           H.N . . . . . . . . . . .
      
      (Riff 2)
      
         B5
      E|-----------------------------------------
      B|-----------------------------------------
      G|---------------------------------7-------
      D|-------------------------7---9p7---------
      A|-9--------7h8p7----7-8h9---9-------------
      E|-7-7-9-10-------10-----------------------
      
      
         B5
      E|-----------------------------------------
      B|-----------------------------------------
      G|-----------------------------------------
      D|-------------------------7---9p7---------
      A|-9--------7h8p7----7-8h9---9-----9-------
      E|-7-7-9-10-------10-----------------------
      
      
         B5
      E|-----------------------------------------
      B|-----------------------------------------
      G|---------------------------------7-------  (2x)
      D|-------------------------7---9p7---------
      A|-9--------7h8p7----7-8h9---9-------------
      E|-7-7-9-10-------10-----------------------
      
      
         D5 C5
      E|-----------------------------------------
      B|-----------------------------------------
      G|-----------------------------------------
      D|-7--5------------------------------------
      A|-5--3-7h8p7-5h7p5-4h5p4-3----------------
      E|-----------------------------------------
      
      
      Primeira Parte:
      
      (Riff 3)
      
         B5
      E|-----------------------------------------
      B|-----------------------------------------
      G|-----------------------------------------
      D|-4---------------------------------------
      A|-2-2-2-2-------------------0-------------
      E|---------2-2-3-3-0-0-2-2-3---------------
      
         P.M.. . . . . . . . . . .
      
      (Variação Parte 1)
      
         B5      F#5   G5    E5    F#5   G5 A5
      E|-----------------------------------------
      B|-----------------------------------------
      G|-----------------------------------------
      D|-4-4-4-4----------------------------2----
      A|-2-2-2-2-4--4--5--5--2--2--4--4--5--0----
      E|---------2--2--3--3--0--0--2--2--3-------
      
         P.M.. .  .  .  .  .  .  .  .  .  .
      
      
         A5       E5 F5    A5 B5  C5
      E|-----------------------------------------
      B|-----------------------------------------
      G|-----------------------------------------  (2x)
      D|-2-----------------2--4--/5--5-----------
      A|-0-0-0-0--2--3-----0--2--/3--3-----------
      E|----------0--1-3/5-----------------------
      
         P.M..
      
      
         B5
      E|-----------------------------------------
      B|-----------------------------------------
      G|-----------------------------------------
      D|-4---------------------------------------
      A|-2-2-2-2-------------------0-------------
      E|---------2-2-3-3-0-0-2-2-3---------------
      
         P.M.. . . . . . . . . . .
      
      Refrão:
      
      (Riff 4)
      
         B5  F#5 G5             E5           D5
      E|-----------------------------------------
      B|-----------------------------------------
      G|-----------------------------------------
      D|-4-x-------------------------------x-7-7-
      A|-2-x-4---5--------------2-x-2-2-1--x-5-5-
      E|---0-2---3--0-2-3-3-2-1-0-x-3-3-2--------
      
                    P.M.. . . .
      
            C#5
      E|-----------------------------------------
      B|-----------------------------------------
      G|-----------------------------------------
      D|----6------------------------------------
      A|----4-0h1--------------------------------
      E|-----------------------------------------
      
      
      Segunda Parte:
      
      (Riff 5)
      
         B5    F#5 G5       B5    F#5 G5    D5
      E|-----------------------------------------
      B|-----------------------------------------
      G|-----------------------------------------  (2x)
      D|-4-x-x--------x-x-x-4-x-x-------x-x-7----
      A|-2-x-x-4---5--x-x-x-2-x-x-4---5-x-x-5----
      E|-------2---3--------------2---3----------
      
      
         A5    E5 F5        A5    E5 F       C5
      E|-----------------------------------------
      B|-----------------------------------------
      G|-----------------------------------------
      D|-2-x-x-------x-x-x--2-x-x-------x-x--5---
      A|-0-x-x-2--3--x-x-x--0-x-x-2--3--x-x--3---
      E|-------0--1---------------0--1-----------
      
      
         B5
      E|-----------------------------------------
      B|-----------------------------------------
      G|-----------------------------------------
      D|-4-x-x-----x-x-x-4-x-x-----x-x-7-4-------
      A|-2-x-x-4-5-x-x-x-2-x-x-4-5-x-x-5-2-------
      E|-------2-3-------------2-3---------------
      
      
      (Riff 3)
      
      Ponte:
      
      (Riff 6)
      
      
      E|---------------------------------------------------
      B|---------------------------------------------------
      G|---------------------------------------------------
      D|---------------------------------------------------
      A|-------5-----7-------------7------5h7--------------
      E|-7-7-----7-----7---5-7-7-----7-7-------------------
      
           P.M.  .     .       .     . .
      
      E|---------------------------------------------------
      B|---------------------------------------------------
      G|---------------------------------------------------
      D|---------------------------------------------------
      A|--------9-----10--------------10-------9h10--------
      E|-10-10----10-----10--9-10-10-----10-10-------------
      
            P.M.  .      .        .      .  .
      
      Solo:
      
      (Parte 1)
      
      E|---------------------------------------------------
      B|---------------------------------------------------
      G|-3b4r3b4~-4-6-7/9~---7/9-9-9\7-7-7-7p5-------------
      D|---------------------------------------------------
      A|---------------------------------------------------
      E|---------------------------------------------------
      
      
      E|---------------------------------------------------
      B|--------------10p7---------------------------------
      G|-8b9r8b9~-7h9------9-7\6-7---7h9p7~----------------
      D|---------------------------9-----------------------
      A|---------------------------------------------------
      E|---------------------------------------------------
      
      
      E|---------------------------------------------------
      B|---------------------------------------------------
      G|-7-7h9p7-------------------------------------------
      D|---------9p7---7h9---------------------------------
      A|-------------9-----9~-9h10-------------------------
      E|---------------------------------------------------
      
      
      (Parte 2)
      
      E|---------------------------------------------------
      B|--------------------12h14p12-----------------------
      G|-----------------11--------------------------------
      D|---------9h11/12-----------------------------------
      A|-9~-9h10-------------------------------------------
      E|---------------------------------------------------
      
      
      E|---------------------------------------------------
      B|-12-14p12-14-14b15~----15r14-12-13b14-12-12h14-----
      G|-----------------------------------------------12--
      D|---------------------------------------------------
      A|---------------------------------------------------
      E|---------------------------------------------------
      
      
      E|-------14-14-15-14-10-14-10h14p10----10------------
      B|----------------------------------14----14p12------
      G|-12-12---------------------------------------------
      D|---------------------------------------------------
      A|---------------------------------------------------
      E|---------------------------------------------------
      
      
      E|---------------------------------------------------
      B|---------------------------------------------------
      G|-11\9-11p9\7-9h10r9-7-6~---------------------------
      D|---------------------------------------------------
      A|---------------------------------------------------
      E|---------------------------------------------------
      
      
      (Parte 3)
      
      E|-14-10h14p10----------------10---------------------
      B|-------------14-12----12-14------------------------
      G|-------------------11------------------------------
      D|---------------------------------------------------
      A|---------------------------------------------------
      E|---------------------------------------------------
      
      
      E|-19p14----------------14---------------------------
      B|-------15p14----14h15------------------------------
      G|-------------16------------------------------------
      D|---------------------------------------------------
      A|---------------------------------------------------
      E|---------------------------------------------------
      
      
      E|-19-15h19p15-------------------15-19b22r19-15-19~--
      B|-------------17-------------17---------------------
      G|----------------16-------16------------------------
      D|-------------------17-17---------------------------
      A|---------------------------------------------------
      E|---------------------------------------------------
      
      
      E|-19-16h19p16--------------------12h16p12-----------
      B|-------------17------------------------------------
      G|----------------16\13-----13h16---------16p13\9~---
      D|-----------------------14--------------------------
      A|---------------------------------------------------
      E|---------------------------------------------------
      
      
      E|---------------------------------------------------
      B|---------------------------------------------------
      G|-11-11-11-11-11-11/--12-12-12-12/--15-15-15-15\----
      D|---------------------------------------------------
      A|---------------------------------------------------
      E|---------------------------------------------------
      
      
      E|---------------------------------------------------
      B|---------------------------------------------------
      G|-7-7-7-7/--9-9-9-9\--6~----------------------------
      D|---------------------------------------------------
      A|---------------------------------------------------
      E|---------------------------------------------------
      
      
      (Parte 4)
      
      E|---------------------------------------------------
      B|---------------------------------------------------
      G|-/7~---------7-9-8b10-7~---------------------------
      D|-----9---7/9---------------------------------------
      A|-------9~------------------------------------------
      E|---------------------------------------------------
      
      
      E|---------------------------------------------------
      B|---------------------------------------------------
      G|-----7------7---9p7--------------------------------
      D|-7/9---9-9~---9-----9-7/9p7-9-7--------------------
      A|----------------------0--------9\7\5---------------
      E|---------------------------------------------------
      
      
      E|---------------------------------------------------
      B|-------------8h11/14p11----------------------------
      G|----------9-------------12-------------------------
      D|----8h11-------------------14p12-------------------
      A|-/9------------------------------14----------------
      E|---------------------------------------------------
      
      
      E|---------------------------------------------------
      B|----------10h14/19\14p10----10h14p10----10---------
      G|-------------------------12----------12------------
      D|----11h14------------------------------------------
      A|-12------------------------------------------------
      E|---------------------------------------------------
      
      
      (Parte 5)
      
      E|-/14p10----10-14p10-14p10----10-14p10-14p10----10--
      B|--------12----------------12----------------12-----
      G|---------------------------------------------------
      D|---------------------------------------------------
      A|---------------------------------------------------
      E|---------------------------------------------------
      
      
      E|--15p10----10-14p10----10-15p10----10-14p10----10--
      B|--------12----------12----------12----------12-----
      G|---------------------------------------------------
      D|---------------------------------------------------
      A|---------------------------------------------------
      E|---------------------------------------------------
      
      
      E|-15p10----10-15p10-15p10----10-15p10-15p10----10---
      B|-------12----------------12----------------12------
      G|---------------------------------------------------
      D|---------------------------------------------------
      A|---------------------------------------------------
      E|---------------------------------------------------
      
      
      E|-17p10----10-15p10----10-17p10----10-15p10----10---
      B|-------12----------12----------12----------12------
      G|---------------------------------------------------
      D|---------------------------------------------------
      A|---------------------------------------------------
      E|---------------------------------------------------
      
      
      E|-16p10----10-16p10-16p10----10-16p10-16p10----10---
      B|-------12----------------12----------------12------
      G|---------------------------------------------------
      D|---------------------------------------------------
      A|---------------------------------------------------
      E|---------------------------------------------------
      
      
      E|-17p10----10-16p10----10-17p10----10-16p10----10---
      B|-------12----------12----------12----------12------
      G|---------------------------------------------------
      D|---------------------------------------------------
      A|---------------------------------------------------
      E|---------------------------------------------------
      
      
      E|-18p14----14-18p14-18p14----14-18p14-18p14----14---
      B|-------14----------------14----------------14------
      G|---------------------------------------------------
      D|---------------------------------------------------
      A|---------------------------------------------------
      E|---------------------------------------------------
      
      
      E|-17p12----12-17p12-17p12----12-17p12-17p12----12---
      B|-------14----------------14----------------14------
      G|---------------------------------------------------
      D|---------------------------------------------------
      A|---------------------------------------------------
      E|---------------------------------------------------
      
      
      E|-17b19~--------------------------------------------
      B|---------------------------------------------------
      G|---------------------------------------------------
      D|---------------------------------------------------
      A|---------------------------------------------------
      E|---------------------------------------------------
      
      
      (Parte 6)
      
      E|-~---------------------------------14h17p14--------
      B|-----17-15-19p15----------15h19p15-----------------
      G|-----------------18-16h18--------------------------
      D|---------------------------------------------------
      A|---------------------------------------------------
      E|---------------------------------------------------
      
      
      E|-21p17----------19h24p19----22p19----19------------
      B|-------19-15h19----------22-------22---------------
      G|---------------------------------------------------
      D|---------------------------------------------------
      A|---------------------------------------------------
      E|---------------------------------------------------
      
      
      E|--------------22---------------19------------17----
      B|-22-22p19h22------22p19\18h20------18\15h17--------
      G|---------------------------------------------------
      D|---------------------------------------------------
      A|---------------------------------------------------
      E|---------------------------------------------------
      
      
      E|-----------15------------14------------------------
      B|-15\14h15------14\12h14----------------------------
      G|---------------------------------------------------
      D|---------------------------------------------------
      A|---------------------------------------------------
      E|---------------------------------------------------
      
      
      E|---------------------------------------------------
      B|-14p12\10h12p10\8h10p8\7h8p7h10p7h8p7---7----------
      G|--------------------------------------9---10p9-7---
      D|---------------------------------------------------
      A|---------------------------------------------------
      E|---------------------------------------------------
      
      
      E|------7--------------------------------------------
      B|--------10p7-10b12~--------------------------------
      G|-9b11----------------------------------------------
      D|---------------------------------------------------
      A|---------------------------------------------------
      E|---------------------------------------------------
      
      
      E|---------------------------------------------------
      B|-------4-5p4-----------------8p7-------------------
      G|-4-5-7-------7/10---7h8-10p7-----10/12-------------
      D|---------------------------------------------------
      A|---------------------------------------------------
      E|---------------------------------------------------
      
      
      E|---------------------------------------------------
      B|----------11-12p11----11-12p11----11-12p11--11/12~-
      G|-11-12-14----------14----------14------------------
      D|---------------------------------------------------
      A|---------------------------------------------------
      E|---------------------------------------------------
      
      
      Terceira Parte:
      
      (Riff 7 - 3x)
      
         B5
      E|-----------------------------------------
      B|-----------------------------------------
      G|-------4-----------4-----2---2h4---------
      D|-------4-----4-----4-----2---2h4---------
      A|-2-2-----2-2-4-2-2---2-2---2-------------
      E|-----------------------------------------
      
         P.M.  . .   . .   . .   .
      
      
         G
      E|-----------------------------------------
      B|-----------------------------------------
      G|-------4-----------4-----2---2h4---------
      D|-------4-----4-----4-----2---2h4---------
      A|-------------5---------------------------
      E|-3-3-----3-3---3-3---3-3---3-------------
      
         P.M.  . .   . .   . .   .
      
      
         E
      E|-----------------------------------------
      B|-----------------------------------------
      G|-------4-----------4-----2---2h4---------
      D|-------4-----4-----4-----2---2h4---------
      A|-------------4---------------------------
      E|-0-0-----0-0---0-0---0-0---0-------------
      
         P.M.  . .   . .   . .   .
      
      
         F#               A          Bb5 B5
      E|-----------------------------------------
      B|-----------------------------------------
      G|-------4--------------4------------------
      D|-------4-----4--------4------3---4-------
      A|-------------4----0-0---0-0--1---2-------
      E|-2-2-----2-2---2-------------------------
      
         P.M.  . .   .    .   . .
      
      (Riff 8)
      
      E|---------------------------------------------------
      B|---------------------------------------------------
      G|---------------------------------------------------
      D|-----------0----------------0----------------------
      A|-2-----0-2---2p0--2-----0-2------------------------
      E|---0-2--------------0-2----------------------------
      
      
      E|---------------------------------------------------
      B|---------------------------------------------------
      G|---------------------------------------------------
      D|-----------0---------------0-----------------------
      A|-3-----0-3---3p0-3-----0-3-------------------------
      E|---0-3-------------0-3-----------------------------
      
      
      (Riff 9)
      
        B5    F#5 G5    A5 E5    F#5 G5    A5
      E|-----------------------------------------
      B|-----------------------------------------
      G|-----------------------------------------
      D|4-x-x-------x-x-2----x-x-------x-x-2-x-x-
      A|2-x-x-4---5-x-x-0--2-x-x-4---5-x-x-0-x-x-
      E|------2---3--------0-----2---3-----------
      
      
         B5    F#5 G5    A5 D5 C5
      E|------------------------------------------
      B|------------------------------------------
      G|------------------------------------------
      D|-4-x-x-------x-x-2--7--5------------------
      A|-2-x-x-4---5-x-x-0--5--3------------------
      E|-------2---3------------------------------
      
      
                            B5
      E|------------------------------------------
      B|------------------------------------------
      G|------------------------------------------
      D|----------------------4-------------------
      A|-7h8p7-5h7p5-4h5p4-3--2-------------------
      E|------------------------------------------
      
        Composição: Dave Mustaine / David EllefsonColaboração e revisão:
        • gustavofofao
        • rojao

        Comentários 54

        140 .
        • G' G': Em 13/02/2016 13:36

          Nossa vei, ainda bem q essa videoaula ainda existe, melhor que essa não tem nao

        • renan_russo renan_russo: Em 01/01/2016 12:39

          A cifra ta diferente da vídeo aula.

        • Ricardinho Ricardinho: Em 28/01/2015 18:31

          mustaine fudendo nossas vidas

        • Arthur Arthur: Em 20/01/2014 23:26

          arruma ae o video ta parando antes da metade ¬¬

        • Lucas Lucas: Em 28/09/2013 14:40

          Megadeth mt foda

        • Felipe Felipe: Em 30/07/2013 19:27

          ta sem a video aula :/

        • peidofidido peidofidido: Em 19/07/2013 21:43

          a aula fico muito boa, tenta arruma isso pra nois pf

        • ff.thiago ff.thiago: Em 09/07/2013 16:07

          Já esta sem aula novamente!! Arrumar ae cifra por favor!!

        • hetfieldkevlin hetfieldkevlin: Em 20/05/2013 22:24

          Tem como baixar essa vídeo-aula? se tem, como?

        140 cancelar

        conseguiu tocar?

        • •••
        Luiz Henrique234 visualizações
          ver covers de outras músicas »
          0:00 / 0:00
          1 versão de violão dificuldade exibições contribuição e correção
          1 versão de guitarra dificuldade exibições contribuição e correção
          1 versão de cavaco dificuldade exibições contribuição e correção
          1 versão de teclado dificuldade exibições contribuição e correção
          1 versão de baixo exibições contribuição e correção
          1 versão de bateria exibições contribuição e correção
          1 versão de Guitar Proformatodownloadscontribuição
          play/pausefechar subir/descer velocidade
          6ª corda E5ª corda A4ª corda D3ª corda G2ª corda B1ª corda E
            acordes
            transcrição verificada gustavofofao instrutor de violão
            publicidade
            fechar
            ok