Cifra Club

Aprenda

A Bola do Jogo

Mundo Livre S/A

Cifra: Principal (violão e guitarra)
tom: C
Intro: G C9/12 C7
       G       

e|-------------------|
B|-------------------|
G|------3-------5----|
D|----2---2---4---4--|
A|--3-------5--------|
E|-------------------|

e|--------------------------------------|----------------------3------------|
B|--------------------------------------|--------------3---3h5--------------|
G|--------------------------------------|----------2-4---4-------4h2-0------|
D|------------------2-------------------|--5-5-5-5---------------------3h5--|
A|------------2-5-2---5-2---------------|-----------------------------------|
E|--3-3-3-3-5-------------3-3-3-3-5h7-0-|-----------------------------------|

G C9/12 2x

G            C9/12 
Olha, olha, olha
G            C9/12
Olha, olha, olha
G       D/F#
Olha...
                 Em     C
O meu olhar mais fundo

G               C9/12 
Entra, entra, entra
G               C9/12
Entra, entra, entra
G        D/F#
Senta...
                  Em    C C7 
Bem vinda ao Novo Mundo

(Em G A C)
Minhas pernas são bastante fortes
como as de todo trabalhador
Meus braços são de aço
como os de todo operário
Mas como já dizia um velho casca
"A merda dos trabalhadores
é sua alma inútil"
E eu tenho uma alma
que é feita de sonhos
Mas como já dizia um velho casca
"A alma do trabalhador
é como um carro velho,
   C7
só dá trabalho"

e|--------------------------------------|
B|--------------------------------------|
G|--------------------------------------|
D|------------------2-------------------|
A|------------2-5-2---5-2---------------|
E|--3-3-3-3-5-------------3-3-3-3-5h7-0-|

Só da trabalho

e|----------------------3------------|
B|--------------3---3h5--------------|
G|----------2-4---4-------4h2-0------|
D|--5-5-5-5---------------------3h5--|
A|-----------------------------------|
E|-----------------------------------|

G C9/12 2x

G             C9/12 
Tira, tira, tira
G             C9/12
Tira, tira, tira
G       D/F#
Deixa...
                Em    C
Não apaga o meu fogo

G             C9/12
Suba, suba, suba
G             C9/12
Suba, suba, suba
G              D/F#
Gira, gira, linda
            Em    C C7
É a bola do jogo

(Em G A C)
A bola do jogo
A bola do jogo
Sou um trabalhador, sou sim
Mas tenho uma alma
que deseja e sonha
deseja e sonha
Compositor não encontrado.
Colaboração e revisão:
  • André Miranda
16.168 exibições
    • ½ Tom
    • A
    • Bb
    • B
    • C
    • Db
    • D
    • Eb
    • E
    • F
    • F#
    • G
    • Ab
  • Adicionar à lista

    0 comentários

    Ver todos os comentários

    Conseguiu tocar?

    2 Tocaram 0 Ainda não

    Grave um vídeo tocando A Bola do Jogo e nos envie!

    00:00 / 00:00
    Outros vídeos desta música
    Repetir Qualidade Automático
    Outros vídeos desta música
    00:00 / 00:00
    Automático

    Cifra Club Pro

    Aproveite o Cifra Club com benefícios exclusivos e sem anúncios
    Cifra Club Pro
    Aproveite o Cifra Club com benefícios exclusivos e sem anúncios
    OK