Cifra Club

Aprenda

Iluminar

Natiruts

Tab de baixo: Principal
 solo do baixo (intro)                        2x         18x        
G|----14-12---------------------14-12------------||------------------|-----
D|---------14-12-----15-12-----------14-12-------||------------------|-----
A|--12----------15--------15--12----------15-----||----3---3--555~8--|-----
E|----------------13------------------------13---||-55---5-----------|-----
   temos tanta coisa pra            |  iluminar 2x   ( cont em baixo )     
   
G|----------------------------------|--------------------------------------
D|----------------------------------|--------------------------------------
A|----3---3--555-8-5-------------7--|-----3---3-555-8-5----3--3-555-8-5----
E|-55---5------------0-deixa soar---|--55---5-----------55---5------------- 
  ( iluminar )                     |   OH MEU BEM MEU AMOR    3X      VOLTA 

G|---------------------------------|--------------------------------|-----|
D|---------------------------------|------------------------77-33---|-----|
A|----3--3--555-8-5--7-deixa soar--|--------------77-33---55-----55-|-----|
E|-55---5--------------------------|----5~~~~~--55-----55-----------|--(5)|
Composição de Natiruts
Colaboração e revisão:
  • junior
2.654 exibições

0 comentários

Ver todos os comentários

Conseguiu tocar?

1 Tocaram 0 Ainda não

Grave um vídeo tocando Iluminar e nos envie!

00:00 / 00:00
outros vídeos desta música
repetir qualidade Automático
Outros vídeos desta música
00:00 / 00:00
Automático

Cifra Club Pro

Aproveite o Cifra Club com benefícios exclusivos e sem anúncios
Cifra Club Pro
Aproveite o Cifra Club com benefícios exclusivos e sem anúncios
OK