Cifra Club

Aprenda

Lounge Act

Nirvana

Tab de baixo: Principal
[Intro]
G|--------------------------------------------------|
D|--------4-----------------------------------------|
A|------5------------------------5-4----------------| x2
E|-3/7------2--3-2-3/10--8-7-5-7-----2--3-2-3/8-7-5-|

[Verse]
(Same as the intro but the end)
G|--------------------------------------------------|
D|--------4-----------------------------------------|
A|------5------------------------5-4----------------| x2
E|-3/7------2--3-2-3/10--8-7-5-7-----2--3-2-3/8-7-5-|

G|---------------------------|
D|--------4------------------|
A|------5--------------------|
E|-3/7------2--3-2-3/7-5-5-5-|

[Chorus]
G|------------------7-------------------------------------|
D|-------5h7-5--------------------------------7-----------|
A|-------------7-5-----------5-7--7-------4-5---5---------|
E|-0--5---------------3--5-7--------5--5----------3--0-3/-|

G|---------------------------------------------------------|
D|-------5h7-5------7-------------------------7---5--5-5---|
A|-------------7-5-----------5-7--7-------4-5---5--------0-|
E|-0--5---------------3--5-7--------5--5-------------------|

G|--------------------------------------------------------|
D|--------------------------------7--7--7-7-6-6-6-5--5/9\-|
A|-----------------------------0--------------------------|
E|-5--5--5--5-5-4-4-4-3--3-3-3----------------------------|

[Bridge]
G|------------------------------------------------|
D|------4-----------------------------------------|
A|----5------------------------5-4----------------| 
E|-7------2--3-2-3/10--8-7-5-7-----2--3-2-3/8-7-5-|

Last Chorus/Outro
G|------------------7-------------------------------------| 
D|-------5h7-5--------------------------------7-----------|  
A|-------------7-5-----------5-7--7-------4-5---5---------|    
E|-0--5---------------3--5-7--------5--5----------3--0-3/-|     
                                                                  
G|---------------------------------------------------------|   
D|-------5h7-5------7-------------------------7---5--5-5---|   
A|-------------7-5-----------5-7--7-------4-5---5--------0-|   
E|-0--5---------------3--5-7--------5--5-------------------| 

G|--------------------------------------------------------|
D|--------------------------------7--7--7-7-6-6-6-5--5/9\-|
A|-----------------------------0--------------------------| x2
E|-5--5--5--5-5-4-4-4-3--3-3-3----------------------------|

G|---|
D|---|
A|-0-|
E|---|

Composição de Dave Grohl / Krist Novoselic / Kurt Cobain
Colaboração e revisão:
  • Gabriel Leite
25.158 exibições

0 comentários

Ver todos os comentários

Conseguiu tocar?

4 Tocaram 0 Ainda não

Grave um vídeo tocando Lounge Act e nos envie!

00:00 / 00:00
Outros vídeos desta música
Repetir Qualidade Automático
Outros vídeos desta música
00:00 / 00:00
Automático

Cifra Club Pro

Aproveite o Cifra Club com benefícios exclusivos e sem anúncios
Cifra Club Pro
Aproveite o Cifra Club com benefícios exclusivos e sem anúncios
OK