Cifra Club

Filho do Deus Vivo

Nívea Soares

Cifra: Original (violão e guitarra)
Tom: E
Intro : C#5   B4/E   E4/A   F#5
       (C#5   B4/E   E4/A   F#5)


A parte do teclado, pode fazer na guitarra assim:

E|-------------------------------------------------|
A|-------------------------------------------------|
D|-------------9---------11------------------------|
G|---9--8--6-------9--11---------------------------|
B|-------------------------------------------------|
E|-------------------------------------------------|

          C#5             B4/E              E4/A
E|-------------------------------------------------------------|
B|---5-5-5-4-4-5-5-5--9-9-9-9-9-9-9-9-14-14-14-12-12-14-14-14--|
G|---6-6-6-6-6-6-6-6--9-9-9-9-9-9-9-9-14-14-14-14-14-14-14-14--|
D|---6-6-6-6-6-6-6-6--9-9-9-9-9-9-9-9-14-14-14-14-14-14-14-14--|
A|-------------------------------------------------------------|
E|-------------------------------------------------------------|

         F#5
E|--14-14-14-14-14-14-14-14-------------------|
B|--14-14-14-14-14-14-14-14-------------------|
G|--11-11-11-11-11-11-11-11-------------------|
D|--------------------------------------------|
A|--------------------------------------------|
E|--------------------------------------------|

Verso:

Toque 16 vezes cada nota:


E|-------------------------------------------------------------|
B|-------------------------------------------------------------|
G|---6--------9---------14--14---------------------------------|
D|-------------------------------------------------------------|
A|-------------------------------------------------------------|
E|-------------------------------------------------------------|

Mesma coisa:


E|-------------------------------------------------------------|
B|-------------------------------------------------------------|
G|---6--------9---------14--14---------------------------------|
D|-------------------------------------------------------------|
A|-------------------------------------------------------------|
E|-------------------------------------------------------------|

Toque essa parte com o harmônico natural (H):


     H       H  H

E|--12--11--12-12----------------------------------------------|
B|-------------------------------------------------------------|
G|-------------------------------------------------------------|
D|-------------------------------------------------------------|
A|-------------------------------------------------------------|
E|-------------------------------------------------------------|

x2

Ponte:

E|--------------------19---------------------------------------|
B|-----14----17------------------------------------------------|
G|-------------------------------------------------------------|
D|-------------------------------------------------------------|
A|-------------------------------------------------------------|
E|-------------------------------------------------------------|

X2

Solo:

E|-------12-------12----12--------16-------16----16-------|
B|-14-14----14-14----14-----17-17----17-17----17----------|
G|--------------------------------------------------------|
D|--------------------------------------------------------|
A|--------------------------------------------------------|
E|--------------------------------------------------------|

E|--------------------------------------------------------|
B|-------14-------14----14-------14-------14----14--------|
G|-14-14----14-14----14----11-11----11-11----11-----------|
D|--------------------------------------------------------|
A|--------------------------------------------------------|
E|--------------------------------------------------------|

X2

C#5          B4/E              E4/A
 Verbo vivo, viveu entre nós, o Filho do Homem, o filho de Deus
               C#5               B4/E           E4/A
 Curando os enfermos, livrando cativos, era chegado o reino de Deus
         C#5        B4/E            E4/A
 Foi humilhado, crucificado, tão rejeitado pelos seus
        C#5         B4/E       E4/A
 Ressuscitado, glorificado, o inferno e a morte venceu

    B4/E                  F#4/B
 E agora quem dizem que tú és?
      E4/A      C#5         F#4/B
 Um profeta um agitador qualquer
      B4/E                   F#4/B
 Teu Espírito me revela quem Tu és
     E4/A    C#5 F#4/B
 O Ungido de Deus

          C#5                  B4/E
 Tu és o Cristo, filho do Deus Vivo
           E4/A                  F#5
 Sobre esta rocha, tua igreja está
          C#5                  B4/E
 Tu és o Cristo, filho do Deus Vivo
           E4/A                     F#5
 Rocha inabalável, outro igual não há,
           C#5  B4/E E4/A4  F#5
 Igual não há.


Espontâneo :  C#5  B4/E E4/A4

END : C#5  B4/E E4/A4  F#5 (2x)

OBS: NO F#5 PODE USAR F#m
exibições 16.579
Acordes para:
    Composição: Nívea Soares Colaboração e revisão:
    • Daniel Ricardo

    0 comentários

    mostrar mais comentários

    Conseguiu tocar?

    3 tocaram 0 ainda não

    Grave um vídeo tocando Filho do Deus Vivo e mande pra gente!

    00:00 / 00:00
    outros vídeos desta música
    repetir qualidade Automático
    Outros vídeos desta música
    00:00 / 00:00
    Automático
    OK