Cifra Club

Aprenda

Quando Eu Me Aposentar

O Terno

Cifra: Principal (violão e guitarra)
tom: A (forma dos acordes no tom de G) Capotraste na 2ª casa
[Primeira Parte]

E|------------------------------------------|
B|-10/12/10--9/7--9--10--5--4---------------|
G|-----------------------0--4---------------|
D|-11/13/11--9/7--9--11--0--4---------------|
A|--------------------------0---------------|
E|-----------------------7------------------|

A                    G  A
Não sei quanto tempo faz
A                    G  A 
Que o ser humano está
A                 G   A  
Procurando sem achar

[Refrão]

               G7M
E|------------------------------------------|
B|-5h7/9--7--9--0---------------------------|
G|--------------0---------------------------|
D|-6/7/9--7--9--0---------------------------|
A|------------------------------------------|
E|--------------5---------------------------|

         G7M
Algo pra saciar
         G7M
Algo pra completar
              G7M
Quando eu me aposentar

                D
E|------------------------------------------|
B|-5p7/9--5---------------------------------|
G|-------------4----4/6/4p0-----------------|
D|-6/7/9--6----4h6----------4/6-------------|
A|-------------7---------------7------------|
E|------------------------------------------|

G7M            D
Quando eu chegar

[Segunda Parte]

E|------------------------------------------|
B|-10/12/10--9/7--9--10--5--4---------------|
G|-----------------------0--4---------------|
D|-11/13/11--9/7--9--11--0--4---------------|
A|--------------------------0---------------|
E|-----------------------7------------------|

A              G  A
A hora de descansar
A                       G  A
Que está sempre pra chegar
A                    G  A
Quanto falta pra acabar?

[Refrão]

               G7M
E|------------------------------------------|
B|-5h7/9--7--9--0---------------------------|
G|--------------0---------------------------|
D|-6/7/9--7--9--0---------------------------|
A|------------------------------------------|
E|--------------5---------------------------|

           G7M
O que vai saciar?
            G7M
O que vai completar?
              G7M
Quando eu me aposentar?

                D
E|------------------------------------------|
B|-5p7/9--5---------------------------------|
G|-------------4----4/6/4p0-----------------|
D|-6/7/9--6----4h6----------4/6-------------|
A|-------------7---------------7------------|
E|------------------------------------------|

G7M          D
Quando chegar

[Ponte]

    E         G         D             E/D  D  
E|-0----0----0----0--------4-----4---4/6--4-|
B|-0----0----0----0----------5----5--5/7--5-|
G|-0----0----0----0------4-----4---4-4/6----|
D|-0----0----0----0----0--------------------|
A|------------------------------------------|
E|------------------------------------------|

E                    G
Fugir da cidade e da rotina
                      D  E/D  D
E da hora de trabalhar
E                         
Sei que movimenta a gente
G                       D  E/D  D
É essa ansiedade de chegar

[Terceira Parte]

E|------------------------------------------|
B|-10/12/10--9/7--9--10--5--4---------------|
G|-----------------------0--4---------------|
D|-11/13/11--9/7--9--11--0--4---------------|
A|--------------------------0---------------|
E|-----------------------7------------------|

A              G  A
No entanto até lá
A              G  A
Nada impede de tentar
A              G  A
Ver em volta respirar

[Refrão]

               G7M
E|------------------------------------------|
B|-5h7/9--7--9--0---------------------------|
G|--------------0---------------------------|
D|-6/7/9--7--9--0---------------------------|
A|------------------------------------------|
E|--------------5---------------------------|

           G7M
Antes de saciar
            G7M
Antes de completar
              G7M
Para de procurar

                D
E|------------------------------------------|
B|-5p7/9--5---------------------------------|
G|-------------4----4/6/4p0-----------------|
D|-6/7/9--6----4h6----------4/6-------------|
A|-------------7---------------7------------|
E|------------------------------------------|

G7M         D
Pois já está
Composição de Tim Bernardes
Colaboração e revisão:
  • Lucas Abdalah
134 exibições
    • ½ Tom
    • A
    • Bb
    • B
    • C
    • Db
    • D
    • Eb
    • E
    • F
    • F#
    • G
    • Ab
  • Adicionar à lista

    0 comentários

    Ver todos os comentários

    Conseguiu tocar?

    0 Tocaram 0 Ainda não

    Grave um vídeo tocando Quando Eu Me Aposentar e nos envie!

    00:00 / 00:00
    Outros vídeos desta música
    Repetir Qualidade Automático
    Outros vídeos desta música
    00:00 / 00:00
    Automático

    Cifra Club Pro

    Aproveite o Cifra Club com benefícios exclusivos e sem anúncios
    Cifra Club Pro
    Aproveite o Cifra Club com benefícios exclusivos e sem anúncios
    OK