Cifra Club

Kristy, Are You Doing Okay?

The Offspring

Cifra: Principal
exibições 41.256
Tom: C
Intro:

E|----------------------------------------|
B|----------------------------------------|
G|----------------------------------------|
D|-----5-55------5-55------3-33------5-55-|
A|-3-3-3-33--3-3-3-33------3-33------5-55-|
E|---------------------1-1-1-11--3-3-3-33-|(X2)

Verse:

|----------------------------------------|
|----------------------------------------|
|-----5-55------5-55------2-22-----------|
|-----5-55------5-55------2-22------5-55-|
|-3-3-3-33--2-2-2-22--0-0-0-00------5-55-|
|-------------------------------3-3-3-33-|

----------------------------------------|
----------------------------------------|
----------------------------------------|
-----3-33------3-33------5-55------5-55-|
-----3-33------3-33------5-55------5-55-|
-1-1-1-11--1-1-1-11--3-3-3-33--3-3-3-33-|(X2)

Pre-Chorus:

|----------------------------------|
|----------------------------------|
|----------------------------------|
|-3-3-3-3-3-3-3-3--5-5-5-5-5-5-5-5-|
|-3-3-3-3-3-3-3-3--5-5-5-5-5-5-5-5-|
|-1-1-1-1-1-1-1-1--3-3-3-3-3-3-3-3-|

|----------------------------------------|
|----------------------------------------|
|-----5-55------5-55------2-22-----------|
|-----5-55------5-55------2-22------5-55-|
|-3-3-3-33--2-2-2-22--0-0-0-00------5-55-|
|-------------------------------3-3-3-33-|

|----------------------------------|
|----------------------------------|
|----------------------------------|
|-3-3-3-3-3-3-3-3--5-5-5-5-5-------|
|-3-3-3-3-3-3-3-3--5-5-5-5-5-------|
|-1-1-1-1-1-1-1-1--3-3-3-3-3-------|

Chorus:

|----------------------------------|
|----------------------------------|
|-5-5-5-5-5-5-5-5------------------|
|-5-5-5-5-5-5-5-5--7-7-7-7-7-7-7-7-|
|-3-3-3-3-3-3-3-3--7-7-7-7-7-7-7-7-|
|------------------5-5-5-5-5-5-5-5-|

-------------------------------------------|
-------------------------------------------|
-9-9-9-9-9-9-9-9--10-10-10-10--12-12-12-12-|
-9-9-9-9-9-9-9-9--10-10-10-10--12-12-12-12-|
-7-7-7-7-7-7-7-7--8--8--8--8---10-10-10-10-|
-------------------------------------------|

|----------------------------------|
|----------------------------------|
|-5-5-5-5-5-5-5-5------------------|
|-5-5-5-5-5-5-5-5--7-7-7-7-7-7-7-7-|
|-3-3-3-3-3-3-3-3--7-7-7-7-7-7-7-7-|
|------------------5-5-5-5-5-5-5-5-|

-----------------------------------|
-----------------------------------|
-7-7-7-7-7-7-7-7-------------------|
-7-7-7-7-7-7-7-7--3-3-3-3--5-5-5-5-|
-5-5-5-5-5-5-5-5--3-3-3-3--5-5-5-5-|
------------------1-1-1-1--3-3-3-3-|

Pre- Verse:

E|----------------------------------------|
B|----------------------------------------|
G|----------------------------------------|
D|-----5-55------5-55------3-33------5-55-|
A|-3-3-3-33--3-3-3-33------3-33------5-55-|
E|---------------------1-1-1-11--3-3-3-33-|
Verse:

|----------------------------------------|
|----------------------------------------|
|-----5-55------5-55------2-22-----------|
|-----5-55------5-55------2-22------5-55-|
|-3-3-3-33--2-2-2-22--0-0-0-00------5-55-|
|-------------------------------3-3-3-33-|

----------------------------------------|
----------------------------------------|
----------------------------------------|
-----3-33------3-33------5-55------5-55-|
-----3-33------3-33------5-55------5-55-|
-1-1-1-11--1-1-1-11--3-3-3-33--3-3-3-33-|(X2)

Pre-Chorus:

|----------------------------------|
|----------------------------------|
|----------------------------------|
|-3-3-3-3-3-3-3-3--5-5-5-5-5-5-5-5-|
|-3-3-3-3-3-3-3-3--5-5-5-5-5-5-5-5-|
|-1-1-1-1-1-1-1-1--3-3-3-3-3-3-3-3-|

|----------------------------------------|
|----------------------------------------|
|-----5-55------5-55------2-22-----------|
|-----5-55------5-55------2-22------5-55-|
|-3-3-3-33--2-2-2-22--0-0-0-00------5-55-|
|-------------------------------3-3-3-33-|

|----------------------------------|
|----------------------------------|
|----------------------------------|
|-3-3-3-3-3-3-3-3--5-5-5-5-5-------|
|-3-3-3-3-3-3-3-3--5-5-5-5-5-------|
|-1-1-1-1-1-1-1-1--3-3-3-3-3-------|

Chorus:

|----------------------------------|
|----------------------------------|
|-5-5-5-5-5-5-5-5------------------|
|-5-5-5-5-5-5-5-5--7-7-7-7-7-7-7-7-|
|-3-3-3-3-3-3-3-3--7-7-7-7-7-7-7-7-|
|------------------5-5-5-5-5-5-5-5-|

-------------------------------------------|
-------------------------------------------|
-9-9-9-9-9-9-9-9--10-10-10-10--12-12-12-12-|
-9-9-9-9-9-9-9-9--10-10-10-10--12-12-12-12-|
-7-7-7-7-7-7-7-7--8--8--8--8---10-10-10-10-|
-------------------------------------------|

|----------------------------------|
|----------------------------------|
|-5-5-5-5-5-5-5-5------------------|
|-5-5-5-5-5-5-5-5--7-7-7-7-7-7-7-7-|
|-3-3-3-3-3-3-3-3--7-7-7-7-7-7-7-7-|
|------------------5-5-5-5-5-5-5-5-|

-----------------------------------|
-----------------------------------|
-7-7-7-7-7-7-7-7-------------------|
-7-7-7-7-7-7-7-7--3-3-3-3--5-5-5-5-|
-5-5-5-5-5-5-5-5--3-3-3-3--5-5-5-5-|
------------------1-1-1-1--3-3-3-3-|

Pre- Verse:

E|----------------------------------------|
B|----------------------------------------|
G|----------------------------------------|
D|-----5-55------5-55------3-33------5-55-|
A|-3-3-3-33--3-3-3-33------3-33------5-55-|
E|---------------------1-1-1-11--3-3-3-33-| (2)
Solo:

Guitar 1:

|--8--8--7--7--8--8--7--7-----------------8--8--7--7--8--8--8--7--7-13~~12~~10~~12~~1515|
|---8--8--8--8--8--8--8--8-----------------8--8--8--8--8--8--8--8--8--------------------|
|--------------------------10--9-7--9-77------------------------------------------------|
|---------------------------------------------------------------------------------------|
|---------------------------------------------------------------------------------------|
|---------------------------------------------------------------------------------------|
Guitar 2:
|------------------------------------|
|------------------------------------|
|-5-5-5-5--5-5-5-5-------------------|
|-5-5-5-5--5-5-5-5--7-7-7-7--5-5-5-5-|
|-3-3-3-3--2-2-2-2--7-7-7-7--5-5-5-5-|
|-------------------5-5-5-5--3-3-3-3-|

|----------------------------------|
|----------------------------------|
|----------------------------------|
|-3-3-3-3-3-3-3-3--5-5-5-5-5-5-5-5-|
|-3-3-3-3-3-3-3-3--5-5-5-5-5-5-5-5-|
|-1-1-1-1-1-1-1-1--3-3-3-3-3-3-3-3-| (2)

Pre-Chorus:

|----------------------------------|
|----------------------------------|
|----------------------------------|
|-3-3-3-3-3-3-3-3--5-5-5-5-5-5-5-5-|
|-3-3-3-3-3-3-3-3--5-5-5-5-5-5-5-5-|
|-1-1-1-1-1-1-1-1--3-3-3-3-3-3-3-3-|

|----------------------------------------|
|----------------------------------------|
|-----5-55------5-55------2-22-----------|
|-----5-55------5-55------2-22------5-55-|
|-3-3-3-33--2-2-2-22--0-0-0-00------5-55-|
|-------------------------------3-3-3-33-|

|----------------------------------|
|----------------------------------|
|----------------------------------|
|-3-3-3-3-3-3-3-3--5-5-5-5-5-5-5-5-|
|-3-3-3-3-3-3-3-3--5-5-5-5-5-5-5-5-|
|-1-1-1-1-1-1-1-1--3-3-3-3-3-5-5-5-|

---------------------------------|
---------------------------------|
---------------------------------|
-5-5-5-5-5-5-5-5-5-5-5-5-5-------|
-5-5-5-5-5-5-5-5-5-5-5-5-5-------|
-3-3-3-3-3-3-3-3-3-3-3-3-3-------|

Final Chorus:

|----------------------------------|
|----------------------------------|
|-5-5-5-5-5-5-5-5------------------|
|-5-5-5-5-5-5-5-5--7-7-7-7-7-7-7-7-|
|-3-3-3-3-3-3-3-3--7-7-7-7-7-7-7-7-|
|------------------5-5-5-5-5-5-5-5-|

-------------------------------------------|
-------------------------------------------|
-9-9-9-9-9-9-9-9--10-10-10-10--12-12-12-12-|
-9-9-9-9-9-9-9-9--10-10-10-10--12-12-12-12-|
-7-7-7-7-7-7-7-7--8--8--8--8---10-10-10-10-|
-------------------------------------------|

|----------------------------------|
|----------------------------------|
|-5-5-5-5-5-5-5-5------------------|
|-5-5-5-5-5-5-5-5--7-7-7-7-7-7-7-7-|
|-3-3-3-3-3-3-3-3--7-7-7-7-7-7-7-7-|
|------------------5-5-5-5-5-5-5-5-|

-------------------------------------------|
-------------------------------------------|
-9-9-9-9-9-9-9-9--10-10-10-10--12-12-12-12-|
-9-9-9-9-9-9-9-9--10-10-10-10--12-12-12-12-|
-7-7-7-7-7-7-7-7--8--8--8--8---10-10-10-10-|
-------------------------------------------|

Guitar 1:
|---8--8--7--7--8--8--7--7--|
|----8--8--8--8--8--8--8--8-|
|---------------------------|
|---------------------------|
|---------------------------|
|---------------------------|
Guitar 2:
|------------------------------------|
|------------------------------------|
|-5-5-5-5--5-5-5-5-------------------|
|-5-5-5-5--5-5-5-5--7-7-7-7--5-5-5-5-|
|-3-3-3-3--2-2-2-2--7-7-7-7--5-5-5-5-|
|-------------------5-5-5-5--3-3-3-3-|

|----------------------------------|
|----------------------------------|
|----------------------------------|
|-3-3-3-3-3-3-3-3--5-5-5-5-5-5-5-5-|
|-3-3-3-3-3-3-3-3--5-5-5-5-5-5-5-5-|
|-1-1-1-1-1-1-1-1--3-3-3-3-3-3-3-3-|

Outro:

E|----------------------------------------|
B|----------------------------------------|
G|----------------------------------------|
D|-----5-55------5-55------3-33------5-55-|
A|-3-3-3-33--3-3-3-33------3-33------5-55-|
E|---------------------1-1-1-11--3-3-3-33-|(X2)

|--------|
|--------|
|-5~~~~~-|
|-5~~~~~-|
|-3~~~~~-|
|--------|
Acordes para:
    Composição: The OffspringColaboração e revisão:
    • Pedro Cezarino
    • tulio christofoletti

    0 comentários

      mostrar mais comentários

      Conseguiu tocar?

      8tocaram0ainda não

      Grave um vídeo tocando Kristy, Are You Doing Okay? e mande pra gente!

      00:00 / 00:00
      outros vídeos desta música
      repetirqualidadeautomática
      Outro vídeos desta música
        00:00 / 00:00
        automática
        OK