Cifra Club

You're Gonna Go Far, Kid

The Offspring

Cifra: Principal (violão e guitarra)
Selo Cifra Club: esta cifra foi revisada para atender aos critérios oficiais da nossa Equipe de Qualidade.
tom: F
[Primeira Estrofe]

  A5
Show me how to lie
                F5
You're getting better 
 
All the time
            C5
And turning all against the one
      G5
Is an art that's hard to teach
  A5
Another clever word
            F5
Sets off an unsuspecting herd
             C5
And as you step back into line
   G5
A mob jumps to their feet


[Segunda Estrofe]

     A5
Now dance, fucker, dance
         F5
Man, he never had a chance
     C5
And no one even knew
        G5
It was really only you


[Pré-Refrão]

E|-----------------------------------------------------|
B|---6---5-----------6---5-----------6---5-------------|
G|-------------------------------------------5-----5---|
D|-7---------7-----7---------7-----7-------------------|
A|-----------------------------------------------------|
E|-----------------------------------------------------|

              F5
And now you steal away
         D5
Take him out today
      F5
Nice work you did
                 E5      ( G5 )
You're gonna go far, kid


[Primeiro Refrão]

         A5
With a thousand lies
       F5
And a good disguise 
         C5
Hit 'em right between the eyes
         G5
Hit 'em right between the eyes

          A5
When you walk away
         F5
Nothing more to say
         C5
See the lightning in your eyes
         G5                A5
See 'em running for their lives

Riff de Passagem
E|-----------------------------------------------------|
B|-----------------------------------------------------|
G|----------------------5------------------------------|
D|-----7------5------5-----7---------------------------|
A|--------7-7----7-7-----------------------------------|
E|-5-5-------------------------------------------------|


[Terceira Estrofe]

  A5
Slowly out of line
               F5
And drifting closer in your sights
           C5
So play it out, I'm wide awake
         G5
It's a scene about me
         A5
There's something in your way
            F5
And now someone is gonna pay
            C5
And if you can't get what you want
           G5
Well, it's all because of me


[Quarta Estrofe]

     A5
Now dance, fucker, dance
        F5
Man, I never had a chance
     C5
And no one even knew
        G5
It was really only you


[Pré-Refrão]

             F5
And now you lead the way
          D5
Show the light of day
      F5
Nice work you did
                 E5
You're gonna go far, kid
( G5 )
Trust, deceived


[Segundo Refrão]

         A5
With a thousand lies
       F5
And a good disguise 
         C5
Hit 'em right between the eyes
         G5
Hit 'em right between the eyes

          A5
When you walk away
         F5
Nothing more to say
         C5
See the lightning in your eyes
         G5                A5   E5
See 'em running for their lives


[Solo] F5  C5  E5  ( A5  G5 )
       F5  C5  D5  E5 ( G5 )

E|-----------------------------------------------------|
B|-----------------------------------------------------|
G|-----------------------------------------------------|
D|-----------------------------------------------------|
A|-10p7-10/12p10\8h10---10p7-10/12p10------------------|
E|-----------------------------------------------------|

E|-----------------------------------------------------|
B|-----------------------------------------------------|
G|-----------------------------------------------------|
D|-----------------------------------------------------|
A|-/15---14~---11~---14--15~-14-12-14~---12-11-12~-----|
E|-----------------------------------------------------|

E|------------------------------------------19...~--20~|
B|----------------------------------21...~-------------|
G|-/10~--14~-17~--12~--17~--21...~---------------------|
D|-----------------------------------------------------|
A|-----------------------------------------------------|
E|-----------------------------------------------------|


[Quinta Estrofe]

Now dance, fucker, dance
He never had a chance
And no one even knew
It was really only you
So dance, fucker, dance
I never had a chance
                       ( G5 )
It was really only you


[Terceiro Refrão]

         A5
With a thousand lies
       F5
And a good disguise 
         C5
Hit 'em right between the eyes
         G5
Hit 'em right between the eyes

          A5
When you walk away
         F5
Nothing more to say
         C5
See the lightning in your eyes
         G5                A5
See 'em running for their lives


Clever alibis
     F5
Lord of the flies
         C5
Hit 'em right between the eyes
         G5
Hit 'em right between the eyes

          A5
When you walk away
         F5
Nothing more to say
         C5
See the lightning in your eyes
         G5                A5
See 'em running for their lives

Final   
E|-----------------------------------------------------|
B|-----------------------------------------------------|
G|----------------------5------------------------------|
D|-----7------5------5-----7--7--7---------------------|
A|--------7-7----7-7----------7--7---------------------|
E|-5-5------------------------5--5---------------------|
Outros vídeos desta música
    155.431 exibições
      • ½ Tom
      • A
      • Bb
      • B
      • C
      • Db
      • D
      • Eb
      • E
      • F
      • F#
      • G
      • Ab
    • Adicionar à lista

    Afinação da cifra

    Afinador online

      0 comentários

      Ver todos os comentários

      Entre para o Cifra Club PRO

      Tenha acesso a benefícios exclusivos no App e no Site

      • Chega de anúncios

      • Badges exclusivas

      • Mais recursos no app do Afinador

      • Atendimento Prioritário

      • Aumente seu limite de lista

      • Ajude a produzir mais conteúdo

      Capítulos
      • Tocando a Música
      • Apresentação / Equipamentos
      • Acordes Primeira Estrofe
      • Tocando Primeira Estrofe
      • Ritmo Primeira Estrofe
      • Acordes Segunda Estrofe
      • Tocando Segunda Estrofe
      • Ritmo Segunda Estrofe
      • Acordes Pré-Refrão
      • Tocando Pré-Refrão
      • Ritmo Pré-Refrão
      • Ensinando Pré-Refrão
      • Tocando Refrão
      • Ritmo Refrão
      • Ensinando Riff de Passagem
      • Tocando Terceira Estrofe - Solo
      • Ensinando Solo
      • Encerramento

      Cifra Club Pro

      Aproveite o Cifra Club com benefícios exclusivos e sem anúncios
      Cifra Club Pro
      Aproveite o Cifra Club com benefícios exclusivos e sem anúncios
      Ops (: Contenido disponible sólo en portugués.
      OK