Cifra Club

Aprenda

The Kids Aren't Alright

The Offspring

Cifra: Principal (violão e guitarra)
tom: C#
Intro: A#5  F#5  C#5  G#5
E|---------------------------------------------------
B|---------------------------------------------------
G|-------6---6-----5---5-5-5-5h6-6-6-----------------
D|--8-8--8-8-8-8-8-8-8-8-8-8-8---8-8-----------------
A|---------------------------------------------------
E|---------------------------------------------------
    pm.    .   . .   . . . .     . .
E|---------------------------------------------------
B|---------------------------------------------------
G|-------6---6-----5---5-5-5-5h6-6-6-----------------
D|--4-4--4-4-4-4-4-4-4-4-4-4-4---4-4-----------------
A|---------------------------------------------------
E|---------------------------------------------------
    pm.    .   . .   . . . .     . .
E|---------------------------------------------------
B|---------------------------------------------------
G|-------6---6-----5---5-5-5-5h6-6-6-----------------
D|--6-6--6-6-6-6-6-6-6-6-6-6-6---6-6-----------------
A|---------------------------------------------------
E|---------------------------------------------------
    pm.    .   . .   . . . .     . .
E|---------------------------------------------------
B|---------------------------------------------------
G|--6h8--8-8---6--x--5--5-5-5-5h6-6-6----------------
D|--6----6-6---6--x--6--6-6-6-6---6-6----------------
A|---------------------------------------------------
E|---------------------------------------------------
         pm.            . . .     . .

Riff principal: A#5  F#5  C#5  G#5
E|---------------------------------------------------
B|---------------------------------------------------
G|---------------------------------------------------
D|---------------------------------------------------
A|--1--1/3-3-4------3-4--------------------3-3-3-3---
E|--------------2-2------4-4-4-4--6-6-6-6------------

E|---------------------------------------------------
B|---------------------------------------------------
G|---------------------------------------------------
D|---------------------------------------------------
A|--4-4-4-4--4/6-6-6--4-4-4-4--3-3-3-3--4-4-4-4------
E|---------------------------------------------------


Primeira Parte:
    A#5
E|-----------------------------------------
B|----------------------------------------
G|-----------------------------------------
D|-8--8-8--8-8-8-8--8-8-8-8--8-8-8---------
A|-8--8-8--8-8-8-8--8-8-8-8--8-8-8---------
E|-6--6-6--6-6-6-6--6-6-6-6--6-6-6---------
      pm.  . . . .  . . . .  . .
   F#5
E|-----------------------------------------
B|-----------------------------------------
G|-----------------------------------------
D|-4--4-4--4-4-4-4--4-4-4-4--4-4-4---------
A|-4--4-4--4-4-4-4--4-4-4-4--4-4-4---------
E|-2--2-2--2-2-2-2--2-2-2-2--2-2-2---------
      pm.  . . . .  . . . .  . .
   C#5
E|-----------------------------------------
B|-----------------------------------------
G|-6--6-6--6-6-6-6--6-6-6-6--6-6-6---------
D|-6--6-6--6-6-6-6--6-6-6-6--6-6-6---------
A|-4--4-4--4-4-4-4--4-4-4-4--4-4-4---------
E|-----------------------------------------
      pm.  . . . .  . . . .  . .
   G#5
E|-----------------------------------------
B|-----------------------------------------
G|-----------------------------------------
D|-6--6-6--6-6-6-6--6-6-6-6--6-6-6---------
A|-6--6-6--6-6-6-6--6-6-6-6--6-6-6---------
E|-4--4-4--4-4-4-4--4-4-4-4--4-4-4---------
      pm.  . . . .  . . . .  . .
A#5
  When we were young the future was so bright
F#5
  The old neighborhood was so alive
C#5
  And every kid on the whole damn street
G#5
  Was gonna make it big and not be beat

A#5
  Now the neighborhood's cracked and torn
F#5
  The kids are grown up but their lives are worn
C#5
  How can one little street
G#5
  Swallow so many lives

Refrão:
           A#5
Chances thrown
            F#5
Nothing's free
         C#5         G#5
Longing for used to be
            A#5
Still it's hard
         F#5
Hard to see
         C#5               G#5
Fragile lives, shattered dreams

(Repete o riff principal)

Primeira Parte:
 A#5
Jamie had a chance, well she really did
    F#5
Instead she dropped out and had a couple of kids
 C#5
Mark still lives at home cause he's got no job
G#5
  He just plays guitar and smokes a lot of pot
A#5
  Jay committed suicide
F#5
  Brandon OD'd and died
  C#5
What the hell is going on
      G#5
The cruelest dream, reality

(Repete o refrão)

Solo:
E|---------------------------------------------------
B|---------------------------------------------------
G|---------------------------------------------------
D|---------------------------------------------------
A|---------------------------------------------------
E|-6-6/8-8------8/9-9-----9/11-11-----11/13-13-------

E-4----6-----9------11-----------16-----------------
B|-7b9--9b11--12b14--14b16--16b18----16b18r16--------
G|---------------------------------------------------
D|---------------------------------------------------
A|---------------------------------------------------
E|---------------------------------------------------

E|--------------13-13--------13-13--------13-13------
B|--14----16b18--------16b18--------16b18------------
G|---------------------------------------------------
D|---------------------------------------------------
A|---------------------------------------------------
E|---------------------------------------------------

E|---------------------------------------------------
B|-16b18r16p14-----14h16-14~----9--------------------
G|--------------15----------------11b13r11-----------
D|---------------------------------------------------
A|---------------------------------------------------
E|---------------------------------------------------

E|---------------------------------------------------
B|--9--14-14--14-------------------------------------
G|---------------13-10-11-13-13-13-------------------
D|---------------------------------------------------
A|---------------------------------------------------
E|---------------------------------------------------

E|---------------------------------------------------
B|--14--16b18--b18-18-16b18r16--14-16--16b18r16--16--
G|---------------------------------------------------
D|---------------------------------------------------
A|---------------------------------------------------
E|---------------------------------------------------


Solo Refrão final:
E-4/6\----4/6\----4/6\----4/6\----------------------
B|---------------------------------------------------
G|---------------------------------------------------
D|---------------------------------------------------
A|---------------------------------------------------
E|---------------------------------------------------

E-6-4-6-4---6-4-6-4---6-4-6-4---6-4-6-4-------------
B|---------------------------------------------------
G|---------------------------------------------------
D|---------------------------------------------------
A|---------------------------------------------------
E|---------------------------------------------------

E|---------------------------------------------------
B|---------------------------------------------------
G|---------------------------------------------------
D|-6/8\---6/8\---6/8\---6/8\-------------------------
A|---------------------------------------------------
E|---------------------------------------------------

E-6-4-6-4---6-4-6-4---6-4-6-4---6-4-6-4-------------
B|---------------------------------------------------
G|---------------------------------------------------
D|---------------------------------------------------
A|---------------------------------------------------
E|---------------------------------------------------

E-6-4-6-4---6-4-6-4---6-4-6-4--6\-------------------
B|---------------------------------------------------
G|---------------------------------------------------
D|---------------------------------------------------
A|---------------------------------------------------
E|---------------------------------------------------


           A#5
Chances thrown
            F#5
Nothing's free
         C#5         G#5
Longing for used to be
            A#5
Still it's hard
         F#5
Hard to see
         C#5               G#5     A#5
Fragile lives, shattered dreams
Composição de The Offspring
498.435 exibições
    • ½ Tom
    • A
    • Bb
    • B
    • C
    • Db
    • D
    • Eb
    • E
    • F
    • F#
    • G
    • Ab
  • Adicionar à lista

    0 comentários

    Ver todos os comentários

    Conseguiu tocar?

    71 Tocaram 3 Ainda não

    Grave um vídeo tocando The Kids Aren't Alright e nos envie!

    00:00 / 00:00
    outros vídeos desta música
    repetir qualidade Automático
    Outros vídeos desta música
    00:00 / 00:00
    Automático
    Capítulos
    • Início
    • Ajustando o amplificador
    • Tocando a música completa
    • Acordes da Introdução
    • Tocando a Introdução
    • Ensinando a Introdução
    • Ensinando o riff da Introdução
    • Acorde da Primeira Parte
    • Tocando a Primeira Parte
    • Ensinando a Primeira Parte
    • Tocando o Solo
    • Ensinando o Solo
    • Tocando Refrão Final
    • Ensinando o Refrão Final
    • Encerramento

    Cifra Club Pro

    Aproveite o Cifra Club com benefícios exclusivos e sem anúncios
    Cifra Club Pro
    Aproveite o Cifra Club com benefícios exclusivos e sem anúncios
    OK