Cifra Club

Aprenda

La Bella Luna

Os Paralamas do Sucesso

Cifra: Principal (violão e guitarra)
Quer fazer aulas de música com a gente? Responda essas perguntas
e nos ajude nesse projeto! →
tom: E
[Intro]  E  B7

[Solo]

E|-----7--------------5-------------4---------7-5-|-5/7-4-----4-----5/7-4--------4-----5/7-4-----4----5/7-4--------4---------|
B|-7/9---9---9----5/7---7---7---3/5--5---5-2/4----| ------5-7---7----------7-5-7---7---------5-7---7---------7-5-7---7-9-7-5-|
G|---------9----9---------8---8---------4-4-------| -------------------------------------------------------------------------|
D|------------------------------------------------| -------------------------------------------------------------------------|
A|------------------------------------------------| -------------------------------------------------------------------------|
E|------------------------------------------------| -------------------------------------------------------------------------|

E|-------------------------------------------------------------------------------10b11-10-|
B|-5/9-7---7-7-7-7-9-7-5--9p7-5-5-7--7-7-7-7-9-7-5--5/9-7---7-7-7-7-9-7-5--9p7-5------------|
G|----------------------------------------------------------------------------------------|
D|----------------------------------------------------------------------------------------|
A|----------------------------------------------------------------------------------------|
E|----------------------------------------------------------------------------------------|


     E
Por mais que eu pense
        B7
Que eu sinta que eu fale
     E                   B7
Tem sempre alguma coisa por dizer
     E                   B7                 E
Por mais que o mundo dê voltas em torno do Sol
                    B7
Vem a Lua me enlouquecer

   E            B7
A noite passada
              E      B7
Você veio me ver

E|-0----------------2---|
B|-0----------------0---|
G|-1------1---------2---|
D|-2----2---4-2-4---1---|
A|-2--2-----------2-2---|
E|-0----------------0---|

   E            B7
A noite passada
                 E    B7
Eu sonhei com você

E|-0----------------2---|
B|-0----------------0---|
G|-1------1---------2---|
D|-2----2---4-2-4---1---|
A|-2--2-----------2-2---|
E|-0----------------0---|

   E               B
Ó Lua de cosmo no céu estampada
    E                  B7
Permita que eu possa adormecer
      E            B7
Quem sabe de novo nessa madrugada
E              B7
 Ela resolva aparecer   

[Solo]  E  B7
Composição de Herbert Vianna
448.972 exibições
    • ½ Tom
    • A
    • Bb
    • B
    • C
    • Db
    • D
    • Eb
    • E
    • F
    • F#
    • G
    • Ab
  • Adicionar à lista

    0 comentários

    Ver todos os comentários

    Conseguiu tocar?

    57 Tocaram 9 Ainda não

    Grave um vídeo tocando La Bella Luna e nos envie!

    00:00 / 00:00
    Outros vídeos desta música
    Repetir Qualidade Automático
    Outros vídeos desta música
    00:00 / 00:00
    Automático
    Capítulos
    • Abertura
    • Dicas Iniciais
    • Acordes da Música
    • Ensinando Ritmo
    • Tocando a Música
    • Encerramento

    Cifra Club Pro

    Aproveite o Cifra Club com benefícios exclusivos e sem anúncios
    Cifra Club Pro
    Aproveite o Cifra Club com benefícios exclusivos e sem anúncios
    OK