Cifra Club

Vital e Sua Moto

Os Paralamas do Sucesso

Cifra: Principal
exibições 332.922
Tom: A
[Intro]  A9  A9/C#  A9/D  A9/D#  E

E|-------------------------------------------------------0------0--------|
B|------0-----------0---------0----------0-------------0--------0--------|
G|---2-2--2-----2-2--2-----2-2--2----2-2---2---------1----------1--------|
D|---------------------------------1---------1-----2---------------------|
A|-0--------0-4--------4-5--------5--------------2-----------------------|
E|----------------------------------------------0------------------------|

  A              Bm                   C#m     [Riff 1]  Bm
 Vital andava a pé e achava que assim estava mal

E|-------------------------|
B|-------------------------|
G|-2----2b3----------------|    
D|--4-2-----4-2------------|
A|-------------------------|
E|-------------------------|

  A               Bm                    C#m    [Riff 2]  Bm
 De um ônibus pra outro aquilo para ele era o fim

E|------------------------|
B|------------------------|
G|----2-------------------|
D|-2-4--------------------|
A|------------------------|
E|------------------------|

D                 E                       F#m
 Conselho de seu pai: "Motocicleta é perigoso, Vital.
D             E                            F#m          E
 É duro de negar, filho, mas isto dói bem mais em mim"
A                     Bm                 C#m   [Riff 1]  Bm
 Mas vital comprou a moto e passou a sentir total
A             Bm          C#m    [Riff 2]  Bm
 Vital e sua moto mas que união feliz
D             E           F#m
 Corria e viajava era sensacional
D                E                      F#m     E
 A vida em duas rodas era tudo que ele sempre quis

 D                    E
Vital passou a se sentir total
 D                  E
Com seu sonho de metal
 D                    E
Vital passou a se sentir total
 D            [Riff 3º]
Com o seu sonho       

E|----------------------|
B|----------------------|
G|-9--------------------|
D|-9--------------------|
A|-7--------------------|
E|----------------------|                      

[Solo]  A  Bm  C#m  Bm  A  Bm  C#m  Bm

E|----------------------------------------------------------------------|
B|-----10--9-10----9-10---12\3-10\2-2\3\2-------2\3\2\3\2---------------|
G|-9\11--9------11------9-----------------4-2-------------4--2-4--------|
D|--------------------------------------------2-------------2-----------|
A|----------------------------------------------------------------------|
E|----------------------------------------------------------------------|
       D                 E                   F#m
E|--------------------------------------------|14--------|
B|-17b19-17b19-17b19-17-17--14-17-17-14-17b19-|--14-17b19|
G|--------------------------------------------|----------|
D|--------------------------------------------|----------|
A|--------------------------------------------|----------|
E|--------------------------------------------|----------|

       D                 E                   F#m                    E
E|-17b19-17b19-17b19-17-14\17-17-16-14-12---12-10-9-----12---------------|
B|--------------------------------------------------10-12b14\12-10-12b14-|
G|-----------------------------------------------------------------------|
D|-----------------------------------------------------------------------|
A|-----------------------------------------------------------------------|
E|-----------------------------------------------------------------------|

   D                      E
Vital passou a se sentir total
  D                 E
 No seu sonho de metal

 A                  Bm                        C#m      [Riff 1]  Bm
 Os Paralamas do Sucesso iam tentar tocar na capital, na capital
 A                 Bm                  C#m  [Riff 2]  Bm
 E a caravana do amor pra lá também se encaminhou
D                 E                     F#m
 Ele foi com sua moto, ir de carro era baixo astral
D                     E                  F#m           E
 Minha prima já está lá e é por isso que eu também vou

     A       Bm      C#m     Bm        A
E|--------------------------------------------------------------------------------|
B|---------0-------------0---------------0----------------0---------------0-------|
G|----2-2---2------2-2---2-------2-2----2--------2-2----2-------2-2----2----------|
D|--------------------------------------------------------------------------------|
A|--0----------0-2-----------2-4-------------4-2-------------2-0------------------|
E|--------------------------------------------------------------------------------|
Acordes para:
    Composição: Herbert ViannaColaboração e revisão:
    • Marcos Paulo
    • marli souza
    • Thiago Oliveira

    0 comentários

      mostrar mais comentários

      Conseguiu tocar?

      23tocaram1ainda não

      Grave um vídeo tocando Vital e Sua Moto e mande pra gente!

      00:00 / 00:00
      outros vídeos desta música
      repetirqualidadeautomática
      Outro vídeos desta música
        00:00 / 00:00
        automática
        OK