Cifra Club

Lanterna Dos Afogados

Os Paralamas do Sucesso

Cifra: Principal
exibições 1.466.632
Tom: B
Intro: B9  B9(11+)  A#m  D#m7
       B9  B9(11+)  A#m  D#m7
       B9  B9(11+)  A#m  D#m7
       E9

   B9       B9(11+)  A#m      D#m7
E|----------------------------------6-------|
B|-----7--------6--------6----------6-------|
G|---6--------6--------6----------7---------| 
D|-9--------9--------8----------8-----------|
A|----------------------------6-------------|
E|------------------------------------------|

   E9
E|-7----7-----------------------------------|
B|-7----7-----------------------------------|
G|-9----9-----------------------------------|
D|-9----9-----------------------------------|
A|-7----7-----------------------------------|
E|-0----0-----------------------------------|
   ↓    ↑


Primeira Parte:

             B9
Quando tá escuro
             B9(11+)
E ninguém te ouve
                A#m
Quando chega a noite
        D#m7
E você pode chorar
               B9
Há uma luz no túnel
            B9(11+)
Dos desesperados
               A#m
Há um cais de porto
             D#m7
Pra quem precisa chegar
             B9
Eu tô na lanterna 
        B9(11+)
Dos afogados
              A#m
Eu tô te esperando
           D#m7       E9
Vê se não vai demorar


Segunda Parte:

           B9
Uma noite longa
              B9(11+)
Pra uma vida curta
                 A#m
Mas já não me importa
         D#m7
Basta poder te ajudar
              B9
E são tantas marcas
              B9(11+)
Que já fazem parte
                A#m
Do que eu sou agora
           D#m7
Mas ainda sei me virar
             B9
Eu tô na lanterna 
        B9(11+)
Dos afogados
              A#m
Eu tô te esperando
           D#m7       E9
Vê se não vai demorar


Solo de Sax:  B5  C#5/G#  B5  C#5/G#
              A#5  B5  F#5


Terceira Parte:

           B9
Uma noite longa
              B9(11+)
Pra uma vida curta
                 A#m
Mas já não me importa
         D#m7
Basta poder te ajudar
             B9
Eu tô na lanterna 
        B9(11+)
Dos afogados
              A#m  D#m7
Eu tô te esperando


Solo de Guitarra:

E|-----------------------------------------------------|
B|-14--------------------14----------------------------|
G|-13b15r13p11--13b15~------13b15r13~---13b15r13p11----|
D|-----------------------------------------------------|
A|--------------------------------------------------13~|
E|-----------------------------------------------------|

E|-------------------------14--------------------------|
B|------------------14b16-----14b16r14p11--14-14b16r14-|
G|-----11---13~----------------------------------------|
D|-----------------------------------------------------|
A|-/13----x--------------------------------------------|
E|-----------------------------------------------------|

E|-11-------13~---11-------14~------14----13~---11-----|
B|----14-11----------14-11-------11----11----------14--|
G|-----------------------------------------------------|
D|-----------------------------------------------------|
A|-----------------------------------------------------|
E|-----------------------------------------------------|

E|---------11-----------11-----------11----------------|
B|-b16r-------14b16r-------14b16r-------14b16r---------|
G|-----------------------------------------------------|
D|-----------------------------------------------------|
A|-----------------------------------------------------|
E|-----------------------------------------------------|

E|-11--------------------------------------------------|
B|----14b16---b16-b16-b16r-b16r--b16r--b16r--b16r--b16r|
G|-----------------------------------------------------|
D|-----------------------------------------------------|
A|-----------------------------------------------------|
E|-----------------------------------------------------|

E|--------------------------14-------------------------|
B|-b16r--b16r--b16r--b16-------14b16--14~--------------|
G|-----------------------------------------------------|
D|-----------------------------------------------------|
A|-----------------------------------------------------|
E|-----------------------------------------------------|

E|----19b21~---19-18-16--------------------------------|
B|-16-------------------19-16-19----16-19-16~----------|
G|-------------------------------18--------------------|
D|-----------------------------------------------------|
A|-----------------------------------------------------|
E|-----------------------------------------------------|
Acordes para:
    Composição: Herbert ViannaColaboração e revisão:

    0 comentários

      mostrar mais comentários

      Conseguiu tocar?

      156tocaram2ainda não

      Grave um vídeo tocando Lanterna Dos Afogados e mande pra gente!

      00:00 / 00:00
      outros vídeos desta música
      repetirqualidadeAutomático
      Outro vídeos desta música
        00:00 / 00:00
        Capítulos
        • Início
        • Acordes da música
        • Tocando Introdução - Refrão
        • Ensinando ritmo
        • Tocando trecho da música
        • Encerramento
        OK