Cifra Club

Aprenda

Hipócritas

Ponto De Equilibrio

Tab de baixo: Principal
Riffs principais

  (I)
G||-------------------------------------------------
D||-------------------------------------6-6-6---5---
A||--------6---8---10-8-10~----8-6-8~------------6--
E||----8--------------------------------------------

  (II)
G||--------------------------------------------------
D||--------------------------------------------------
A||-------6--8---10-8-10~----8-6-8~------------------
E||----8--------------------------------4-4-4---4-6--

  (III)
G||--------------------------------------------------
D||--------------------------------------------------
A||-------6--8---10-10-10---8-6--8~------------------
E||----8--------------------------------4-4-4---4-6--


o pedrada fica alternando entre esses 3 principais riffs,

sendo que o (I) eh usado tanto na intro quanto quando entra no refrão seguido do (II) 

depois nos versos ele fica tocando o (III) ..
Composição de Lucas Kastrup / Paulo Granja Filho
Colaboração e revisão:
  • Pedro
3.404 exibições

0 comentários

Mostrar mais comentários

Conseguiu tocar?

4 Tocaram 0 Ainda não

Grave um vídeo tocando Hipócritas e mande pra gente!

00:00 / 00:00
outros vídeos desta música
repetir qualidade Automático
Outros vídeos desta música
00:00 / 00:00
Automático

Cifra Club Pro

Aproveite o Cifra Club com benefícios exclusivos e sem anúncios
Cifra Club Pro
Aproveite o Cifra Club com benefícios exclusivos e sem anúncios
OK