Cifra Club

Colossenses 1

Projeto Sola

Cifra: Principal (violão e guitarra)
Selo Cifra Club: esta cifra foi revisada para atender aos critérios oficiais da nossa Equipe de Qualidade.
tom: C
[Riff 1]

     C
E|--------------------------------------------------|
B|----------1---------1----------1------------1-----|
G|--0----------------------0----------0-------------|
D|--0h2--------2---2-----2-0--------0-0h2--------2--|
A|--3----3-------3---------3--3-------3----3--------|
E|--------------------------------------------------|

[Riff 2]

     F/A
E|--------------------------------------------------|
B|----------1---------1---------1-------------------|
G|--0---------------------------------0h2-0---------|
D|--2h3--------3---3-----3---3-----3---------2p0----|
A|--0----0-------0---------0------------------------|
E|--------------------------------------------------|

[Riff 3]

     F/A
E|---------------------------0-----|
B|----------1---------1------1-----|
G|--0------------------------2-----|
D|--2h3--------3---3-----3---3-----|
A|--0----0-------0-----------------|
E|---------------------------------|

C            F9/A
Ele é a imagem do Deus invisível
C           F9/A
Ele é Senhor sobre a criação

       F7M
Pois, nele foram criadas
         Am                    G
Todas as coisas nos céus e na terra
 F7M
Sejam tronos, soberanias
   Am             G
Poderes ou autoridades
F7M
Ele é antes de tudo
              Am           G
E a todos sustenta pela Palavra
       F7M
Pois, foi do agrado de Deus
                  Am
Que em tudo Ele tenha
        G
Supremacia

( F  Am  F  G )

E|--------------------------------------------------|
B|-------------5--10--8-----------------------------|
G|--------5--7-----------9--7--9--------------------|
D|--------------------------------------------------|
A|--------------------------------------------------|
E|--------------------------------------------------|

E|--------------------------------------------------|
B|-------------5--10--8-----------------------------|
G|--------5--7-----------9--7--5--------------------|
D|--------------------------------------------------|
A|--------------------------------------------------|
E|--------------------------------------------------|

E|--------------------------------------------------|
B|-------------5--10--8-----------------------------|
G|--------5--7-----------9--7--9--------------------|
D|--------------------------------------------------|
A|--------------------------------------------------|
E|--------------------------------------------------|

E|--------------------------------------------------|
B|-------------5------------------------------------|
G|--------5--7---7----------------------------------|
D|--------------------------------------------------|
A|--------------------------------------------------|
E|--------------------------------------------------|

C
Ele é
C/D   C/E           Am             F9
   O resplendor da glória do Pai
C
Ele é
C/D   C/E        F/A
  A exata expressão do seu ser

       F7M
Pois, nele foram criadas
         Am                    G
Todas as coisas nos céus e na terra
 F7M
Sejam tronos, soberanias
   Am             G
Poderes ou autoridades
F7M
Ele é antes de tudo
              Am           G
E a todos sustenta pela Palavra
       F7M
Pois, foi do agrado de Deus
                  Am
Que em tudo Ele tenha
        G
Supremacia

( F  Am  F  G )

 F
Já não há mais nada
      G
Que a Ele não pertença
   Am
Em tudo existe graça
   G/B
Cantemos, sim
 F
Já não há mais nada
      G
Que a Ele não pertença
   Am
Em tudo existe graça
   G/B
Cantemos, sim

[Final] F  Am  F  G
Outros vídeos desta música
273.923 exibições
    • ½ Tom
    • A
    • Bb
    • B
    • C
    • Db
    • D
    • Eb
    • E
    • F
    • F#
    • G
    • Ab
  • Adicionar à lista

Afinação da cifra

Afinador online

    0 comentários

    Ver todos os comentários

    Entre para o Cifra Club PRO

    Tenha acesso a benefícios exclusivos no App e no Site

    • Chega de anúncios

    • Mais recursos no app do Afinador

    • Atendimento Prioritário

    • Aumente seu limite de lista

    • Ajude a produzir mais conteúdo

    Cifra Club Pro

    Aproveite o Cifra Club com benefícios exclusivos e sem anúncios
    Cifra Club Pro
    Aproveite o Cifra Club com benefícios exclusivos e sem anúncios
    OK