Cifra Club

Da Vida, o Melhor

Projeto Sola

Cifra: Principal (violão e guitarra)
Selo Cifra Club: esta cifra foi revisada para atender aos critérios oficiais da nossa Equipe de Qualidade.
tom: Db (forma dos acordes no tom de C) Capotraste na 1ª casa
[Intro] C  F  Am  G  F

[Tab - Intro]

     C
E|------------------------------------------------------|
B|--------1-----------1-------------1-----------0h-1----|
G|-----0-----0-----0-----0-------0-----0-----0-------0--|
D|--3-----------2-------------0-----------0-------------|
A|------------------------------------------------------|
E|------------------------------------------------------|
     F            Am            G
E|------------------------------------------------------|
B|--------1-----------1-------------1-----------0h-1----|
G|-----0-----0-----0-----0-------0-----0-----0-------0--|
D|--3-----------2-------------0-----------0-------------|
A|------------------------------------------------------|
E|------------------------------------------------------|

Am   G    F
Nova vida
Am   G      F
Para sempre
Am     G     F
Uma família
 Am   G
Ale|--gria

F   Am  G
Oh--oh--oh
F   Am  G    F
Oh--oh--oh

Am   G   F
Caminhar
  Am      G    Em  F
O amor buscar
Am    G   Em  F
Aprender
  Am      G
A luz brilhar

   F               Am      G
Saber que a gente pode crescer
   F              Am           G
Viver, chorar, dançar e se alegrar

(Oh--Oh--Oh)

     C      G   Am        Em
Para nós Ele é da vida, o melhor
         F         G       F/A  G
Nosso mover e existir, paraíso aqui
     C        G       Am        Em
Só a Ele entregar o princípio e o fim
      F        G      F/A     G
Do universo o Rei, do mundo a luz

( Am  F/C  C  G4 )

[Ponte]

[Tab - Dedilhado]

E|----------------------------------------------------|
B|-----------1-----------1-------------1-----------1--|
G|--------4-----------4-------------4-----------4-----|
D|-----2-----------2-------------3-----------3--------|
A|--0-----------0-------------0-----------0-----------|
E|----------------------------------------------------|

E|--------------------------| |--------------------------|
B|-----------1-----------1--| |-----------1-----------1--|
G|--------4-----------4-----| |--------4-----------4-----|
D|-----2-----------2--------| |-----0-----------0--------|
A|--3-----------3-----------| |--2-----------2-----------|
E|--------------------------| |--------------------------|

Am        F       C       G
Vida, verdade, caminho e paz
Am            F       C    G
Luz sobre as trevas, redentor
   Am           F
Nosso refúgio, fortaleza
C            G
Nossa força nas batalhas
Am          F
O perfeito sacrifício
C                G
Verbo em carne, Rei dos reis

     C      G  Am        Em
Para nós Ele é da vida, o melhor
         F         G      F/A   G
Nosso mover e existir, paraíso aqui
     C        G      Am        Em
Só a Ele entregar o princípio e o fim
      F        G      F/A     G  C
Do universo o Rei, do mundo a luz
00:00 / 00:00
Outros vídeos desta música
Repetir
Outros vídeos desta música
107.826 exibições
  • Simplificar cifra
    • ½ Tom
    • A
    • Bb
    • B
    • C
    • Db
    • D
    • Eb
    • E
    • F
    • F#
    • G
    • Ab
  • Adicionar à lista

Afinação da cifra

Afinador online

    0 comentários

    Ver todos os comentários

    Entre para o Cifra Club PRO

    Tenha acesso a benefícios exclusivos no App e no Site

    • Chega de anúncios

    • Mais recursos no app do Afinador

    • Atendimento Prioritário

    • Aumente seu limite de lista

    • Ajude a produzir mais conteúdo

    00:00 / 00:00

    Cifra Club Pro

    Aproveite o Cifra Club com benefícios exclusivos e sem anúncios
    Cifra Club Pro
    Aproveite o Cifra Club com benefícios exclusivos e sem anúncios
    OK