Cifra Club

Aprenda

Da Vida, o Melhor

Projeto Sola

Cifra: Principal (violão e guitarra)
tom: Db (forma dos acordes no tom de C) Capotraste na 1ª casa
Introdução e estrofes:
     C
E|--------------------------|----------------------------||
B|--------1-----------1-----|--------1-----------0h-1----||
G|-----0-----0-----0-----0--|-----0-----0-----0-------0--||
D|--3-----------2-----------|--0-----------0-------------||
A|--------------------------|----------------------------||
E|--------------------------|----------------------------||
     F            Am            G
E|--------------------------|----------------------------||
B|--------1-----------1-----|--------1-----------0h-1----||
G|-----0-----0-----0-----0--|-----0-----0-----0-------0--||
D|--3-----------2-----------|--0-----------0-------------||
A|--------------------------|----------------------------||
E|--------------------------|----------------------------||

F

Am   G    F
Nova vida 
Am   G      F
para sempre
Am     G     F
Uma família, 
 Am   G
ale|--gria

F   Am  G
Oh--Oh--Oh
F   Am  G    F
Oh--Oh--Oh

Am   G   F
Caminhar, 
  Am      G    Em  F
o amor buscar
Am    G   Em  F
Aprender, 
  Am      G
a luz brilhar

   F               Am      G
Saber que a gente pode crescer
   F              Am           G
Viver, chorar, dançar e se alegrar

(Oh--Oh--Oh)

     C      G/B   Am        Em7
Para nós Ele é da vida, o melhor
         F         G       F/A  G/B
Nosso mover e existir, paraíso aqui
     C        G/B       Am        Em7
Só a Ele entregar o princípio e o fim
      F        G      F/A     G/B
Do universo o Rei, do mundo a luz

Ponte:

     ^              ^  ^     ^                   ^      
E|-----------------------|--------------0-------------|
B|--1--------------1-----|--------1--------1----------|
G|--2--------------2--0--|--0--2-----2--------0g2--0--|
D|--2-----------2--2--0--|--3-------------------3-----|
A|--0-----------------0--|--3-------------------3-----|
E|-----------------------|----------------------------|

                               ^    
|---------------------------|--------------3--------||
|------------1-----------1--|--1--0-----------------||
|---------------0-----0-----|--0-----0--------------||
|-----0h--2--------2--------|--0--------0-----------||
|--3------------------------|-----------------------||
|---------------------------|--3--------------------||

Dedilhado:

E|--------------------------|--------------------------|
B|-----------1-----------1--|-----------1-----------1--|
G|--------4-----------4-----|--------4-----------4-----|
D|-----2-----------2--------|-----3-----------3--------|
A|--0-----------0-----------|--0-----------0-----------|
E|--------------------------|--------------------------|

|--------------------------||--------------------------|
|-----------1-----------1--||-----------1-----------1--|
|--------4-----------4-----||--------4-----------4-----|
|-----2-----------2--------||-----0-----------0--------|
|--3-----------3-----------||--2-----------2-----------|
|--------------------------||--------------------------|

Am        F       C       G
Vida, verdade, caminho e paz
Am            F       C    G
Luz sobre as trevas, redentor
   Am           F
Nosso refúgio, fortaleza
C            G
Nossa força nas batalhas
Am          F
O perfeito sacrifício
C                G
Verbo em carne, Rei Jesus Cristo

     C      G/B   Am        Em7
Para nós Ele é da vida, o melhor
         F         G      F/A   G/B
Nosso mover e existir, paraíso aqui
     C        G/B       Am        Em7
Só a Ele entregar o princípio e o fim
      F        G      F/A     G/B       C
Do universo o Rei, do mundo a luz
Composição de Guilherme Andrade / Guilherme Iamarino
Colaboração e revisão:
  • Marcus Gama
  • Absalão Marques
25.735 exibições
    • ½ Tom
    • A
    • Bb
    • B
    • C
    • Db
    • D
    • Eb
    • E
    • F
    • F#
    • G
    • Ab
  • Adicionar à lista

    0 comentários

    Ver todos os comentários

    Conseguiu tocar?

    11 Tocaram 1 Ainda não

    Grave um vídeo tocando Da Vida, o Melhor e nos envie!

    00:00 / 00:00
    Outros vídeos desta música
    Repetir Qualidade Automático
    Outros vídeos desta música
    00:00 / 00:00
    Automático

    Cifra Club Pro

    Aproveite o Cifra Club com benefícios exclusivos e sem anúncios
    Cifra Club Pro
    Aproveite o Cifra Club com benefícios exclusivos e sem anúncios
    OK