Cifra Club

Tua Obra em Nós

Projeto Sola

Cifra: Principal (violão e guitarra)
Selo Cifra Club: esta cifra foi revisada para atender aos critérios oficiais da nossa Equipe de Qualidade.
tom: Em
[Intro]

E|--------------------------------------------------|
B|-------------------3p0----------------------------|
G|-----------0--------------0h2--2h4--0--2p0--0h2---|
D|------0h2-----2p0---------------------------------|
A|---2----------------------------------------------|
E|-------------------2h3--------------3-------------|

E|--------------------------------------------------|
B|-------------------3p0----------------------------|
G|-----------0--------------0h2--2h4--0--2p0--0-----|
D|------0h2-----2p0---------------------------------|
A|---2----------------------------------------------|
E|-------------------2h3--------------3-------------|


 Em           C9
Vejo que não sou 
  G          
Quem eu devo ser 
 Em          C9
Mas por tua mão 
         G
Já não sou quem fui 

 Em          C9
Liberdade e amor 
    G          
Em meu interior 
Em        C9
Fruto do teu 
         G      Am
Santo espírito 

             C7M
Guie o meu andar
    G      D9/F#
Em Tua verdade
Am          C7M
A expressão Filho 
 G               D  D9  D
Faz crescer em mim

 G                      
Nada vencerá teu amor 
   C9
De paz encheu o meu coração 
   Em
Bondade encontro no teu perdão 
C9                           D11+
Novo sou, pois tua luz, traz direção


[intro e início]


G                       
E pra Tua igreja servir 
    C9
Ver tua face no meu irmão 
 Em
Contemplar tua obra em nós 
 C9                        D11+
Até o fim, permanecer, em teu amor


E|--------------------------------------------------|
B|-------------------3p0----------------------------|
G|-----------0--------------0h2--2h4--0--2p0--0h2---|
D|------0h2-----2p0---------------------------------|
A|---2----------------------------------------------|
E|-------------------2h3--------------3-------------|

E|--------------------------------------------------|
B|-------------------3p0------------------1p0--0----|
G|-----------0--------------0h2--2h4--0---2p0--0----|
D|------0h2-----2p0---------------------------------|
A|---2----------------------------------------------|
E|-------------------2h3--------------3-3-----------|
Outros vídeos desta música
19.863 exibições
    • ½ Tom
    • Am
    • Bbm
    • Bm
    • Cm
    • C#m
    • Dm
    • Ebm
    • Em
    • Fm
    • F#m
    • Gm
    • G#m
  • Adicionar à lista

Afinação da cifra

Afinador online

    0 comentários

    Ver todos os comentários

    Entre para o Cifra Club PRO

    Tenha acesso a benefícios exclusivos no App e no Site

    • Chega de anúncios

    • Mais recursos no app do Afinador

    • Atendimento Prioritário

    • Aumente seu limite de lista

    • Ajude a produzir mais conteúdo

    Cifra Club Pro

    Aproveite o Cifra Club com benefícios exclusivos e sem anúncios
    Cifra Club Pro
    Aproveite o Cifra Club com benefícios exclusivos e sem anúncios
    OK