Cifra Club

Por Todos Os Dias

Projeto Sola

Cifra: Principal (violão e guitarra)
Selo Cifra Club: esta cifra foi revisada para atender aos critérios oficiais da nossa Equipe de Qualidade.
tom: E
[Intro] E

E
  Ó Deus
        A
Cujo os dias não tem fim
C#m              F#m
  Tão grande é a Tua compaixão
C#m          A           E
  Faz-nos sensíveis ao comum

[Tab - Dedilhado]

E|-4--2--7--4--4--2--0------------------------------|
B|----------------------2---------------------------|
G|--------------------------------------------------|
D|--------------------------------------------------|
A|--------------------------------------------------|
E|--------------------------------------------------|

C#m        A         E/G#
  A vida é breve e incerta

E
  Que o Teu Espírito lidere o nosso andar
A7M
  Em justiça e santidade
C#m
  Mesmo no vale do sofrer
              E
Por todos os dias

( E  A  C#m  A  E )

E                        A
  E quando a nossa geração passar
C#m                            F#m
  Servindo a quem se foi e a quem será
C#m          A           E
  Faz-nos sensíveis ao comum

E|-4--2--7--4--4--2--0------------------------------|
B|----------------------2---------------------------|
G|--------------------------------------------------|
D|--------------------------------------------------|
A|--------------------------------------------------|
E|--------------------------------------------------|

C#m           A      E/G#
  A vida é breve e incerta

E
  Que o Teu Espírito lidere o nosso andar
A7M
  Em justiça e santidade
C#m
  Mesmo no vale do sofrer
    A          E
Por todos os dias
E
  Que o Teu Espírito lidere o nosso andar
A7M
  Em justiça e santidade
C#m
  Mesmo no vale do sofrer
    A          E
Por todos os dias

B       C#m        G#m    A
Em comunhão, confiança e fé (Na esperança em Ti)
B       C#m        G#m    A
Por meio de Cristo nosso Senhor (Em Teu perfeito amor)


(Por todos os dias)
E
  Que o Teu Espírito lidere o nosso andar
A7M
  Em justiça e santidade
C#m
  Mesmo no vale do sofrer
    A         E
Por todos os dias
E
  Que o Teu Espírito lidere o nosso andar
A7M
  Em justiça e santidade
C#m
  Mesmo no vale do sofrer
    A         E
Por todos os dias
              A
Por todos os dias
              C#m
Por todos os dias
              A
Por todos os dias
00:00 / 00:00
Outros vídeos desta música
Repetir
Outros vídeos desta música
25.321 exibições
    • ½ Tom
    • A
    • Bb
    • B
    • C
    • Db
    • D
    • Eb
    • E
    • F
    • F#
    • G
    • Ab
  • Adicionar à lista

Afinação da cifra

Afinador online

    0 comentários

    Ver todos os comentários

    Entre para o Cifra Club PRO

    Tenha acesso a benefícios exclusivos no App e no Site

    • Chega de anúncios

    • Mais recursos no app do Afinador

    • Atendimento Prioritário

    • Aumente seu limite de lista

    • Ajude a produzir mais conteúdo

    00:00 / 00:00

    Cifra Club Pro

    Aproveite o Cifra Club com benefícios exclusivos e sem anúncios
    Cifra Club Pro
    Aproveite o Cifra Club com benefícios exclusivos e sem anúncios
    OK