Cifra Club

Aprenda

Rockaway Beach

Ramones

Tab de baixo: Principal
Afinação (E A D G)

 Intro
|-----------------|-----------------|-----------------|------------------|
|-----------------|-----------------|-----------------|------------------|
|-4/5-5-5-5-5-5-5-|-5-5-5-5-5-5-5-5-|-4/5-5-5-5-5-5-5-|-5-5-5-5-5-5-5-5--|
|-----------------|-----------------|-----------------|------------------|


A
Chewing out a rhythm on my bubble gum
The sun is out and I want some.
D
It's not hard, not far to reach
E
We can hitch a ride to Rockaway Beach.

A
We can hitch a ride to Rockaway Beach.
Up on the roof, out on the street
Down in the playground the hot concrete
D
Busride is too slow
E
They blast out the disco on the radio


Refrão
 A
Rock Rock Rockaway Beach
D
Rock Rock Rockaway Beach
A
Rock Rock Rockaway Beach
E
We can hitch a ride to Rockaway Beach  
(2x)



 Break
|-------------------|-------------------|
|-5-----------------|-------------------|
|----5--5-5-5-5-5-7-|--3--3-3-3-3-3-3-3-|
|-------------------|-------------------|


 Ponte (Is not hard not far to reach, we can reach a ride to rockaway beach)
|----------------|-----------------|----------------|------------------|
|----------------|-----------------|----------------|------------------|
|----------------|-----------------|----------------|------------------|
|-2--2-2-2-2-2-2-|-2-2-2-2-2-2-2-2-|-5--5-5-5-5-5-5-|-5-5-5-5-5-5-5-5--|


|----------------|-----------------|-----------------|-----------------|
|----------------|-----------------|-----------------|-----------------|
|----------------|-----------------|-5-5-5-5-5-5-5-5-|-7-7-7-7-7-7-7-7-|
|-2--2-2-2-2-2-2-|-2-2-2-2-2-2-2-2-|-----------------|-----------------|


A* - D - E 2x    *= nota mais longa


REFRÃO


 Break
|-------------------|-------------------|
|-5-----------------|-------------------|
|----5--5-5-5-5-5-7-|--3--3-3-3-3-3-3-3-|
|-------------------|-------------------|



 depois do segundo Break (a hora q para para voltar no refrão)

|-----------|
|-----------|
|-5---------|
|----5------|


REFRÃO


|-----------|
|-----------|
|-5---------|
|----5------|

Fim.
Composição de Ramones
Colaboração e revisão:
  • Karyni D.
7.723 exibições

0 comentários

Mostrar mais comentários

Conseguiu tocar?

1 Tocaram 0 Ainda não

Grave um vídeo tocando Rockaway Beach e mande pra gente!

00:00 / 00:00
outros vídeos desta música
repetir qualidade Automático
Outros vídeos desta música
00:00 / 00:00
Automático

Cifra Club Pro

Aproveite o Cifra Club com benefícios exclusivos e sem anúncios
7 dias grátis
Cifra Club Pro
Aproveite o Cifra Club com benefícios exclusivos e sem anúncios
7 dias grátis
OK