Cifra Club

In my eyes

Rufio

Cifra: Principal
exibições 36.527
Tom: F
~   - let ring out
... - palm mute
h   - hammer on
/   - slide
p   - pull off
v   - vibrato
5x
5x  - mute after picking
3x

GUITAR 1'S PARTS:
-----------------

Intro:  "You're graceful..."
e|---------------------------------------------------------------------------|
B|---------------------------------------------------------------------------|
G|8~---------------------------8~--------------------------------------------|
D|x~---5~---8~-----------------8~---5~---8~------8-----8-----8-----8---------|
A|6~---5~---8~----8-----8------6~---5~---8~--8-8-8-8-8-8-8-8-8-8-8-8---------|
E|-----3~---5~--6---6-5---5---------3~---5~--6-6-6-6-6-6-5-5-5-5-5-5---------|
                                             ...   ...   ...   ...

Intro Cont'd:  Guitar 1  (2x) (Strumming not defined)
e|---------------------------|
B|---------------------------|
G|----------3---8------------|
D|--5---3---3---8------------|
A|--5---3---1---6------------|
E|--3---1--------------------|

Verse:  "Another day left..."  (2x) (Strumming not defined)
e|---------------------------|
B|---------------------------|
G|------8---3----------------|
D|--5---8---3---3------------|
A|--5---6---1---3------------|
E|--3-----------1------------|

Pre-Chorus:  "I thought that..."  (3x)
e|---------------------------------------------------------------------------|
B|---------------------------------------------------------------------------|
G|---------------------------------------------------------------------------|
D|5-5-5-5-5-8-8-8-8-8-8-8-8-8-8-8-8-8-8-8-8-8--------------------------------|
A|5-5-5-5-5-8-8-8-8-8-8-8-8-8-8-8-8-8-8-8-8-8--------------------------------|
E|3-3-3-3-3-5-5-5-5-5-6-6-6-6-6-6-6-6-6-6-6-6--------------------------------|
                            ...   ...   ...

Pre Chorus Cont'd:
e|---------------------------------------------------------------------------|
B|---------------------------------------------------------------------------|
G|8-8-8-8-8-8-8-8------------------------------------------------------------|
D|8-8-8-8-8-8-8-8-3-3-3-3-3-3-3-3--------------------------------------------|
A|6-6-6-6-6-6-6-6-3-3-3-3-3-3-3-3--------------------------------------------|
E|----------------1-1-1-1-1-1-1-1--------------------------------------------|

Chorus:  "You're graceful..."
e|---------------------------------------------------------------------------|
B|---------------------------------------------------------------------------|
G|8-8-8-8-8-8-8-8------------------------------------------------------------|
D|8-8-8-8-8-8-8-8-5-5-5-5-5-5-5-5-8-8-8-8-8-8-8-8-8-8-8-8-8-8-8-8-8-8-8-8----|
A|6-6-6-6-6-6-6-6-5-5-5-5-5-5-5-5-8-8-8-8-8-8-8-8-8-8-8-8-8-8-8-8-8-8-8-8----|
E|----------------3-3-3-3-3-3-3-3-5-5-5-5-5-5-5-5-6-6-6-6-6-6-5-5-5-5-5-5----|
                                                  ...   ...   ...   ...

Chorus Cont'd:  "You're lovely..."
e|---------------------------------------------------------------------------|
B|---------------------------------------------------------------------------|
G|8-8-8-8-8-8-8-8---------------------------------------------8~-------------|
D|8-8-8-8-8-8-8-8-5-5-5-5-5-5-5-5-8-8-8-8-8-8-8-8-------------8~-------------|
A|6-6-6-6-6-6-6-6-5-5-5-5-5-5-5-5-8-8-8-8-8-8-8-8---8-----8---6~-------------|
E|----------------3-3-3-3-3-3-3-3-5-5-5-5-5-5-5-5-6---6-5---5----------------|

Interlude:  (Strumming not defined)
e|---------------------------------------------------------------------------|
B|---------------------------------------------------------------------------|
G|-----------3---8-----------------------------------------------------------|
D|---5---3---3---8---5/------------------------------------------------------|
A|---5---3---1---6---5/------------------------------------------------------|
E|---3---1-----------3/------------------------------------------------------|

Verse 2:  Starts when Scott sings "With nothing left to do..."
e|------------------------------------|
B|------------------------------------|
G|---------------8---3----------------|
D|-----------5---8---3---3------------|
A|-----------5---6---1---3------------|
E|Pickslide--3-----------1------------|

Repeat Pre Chorus

2nd Chorus:  "You're graceful..."
e|---------------------------------------------------------------------------|
B|---------------------------------------------------------------------------|
G|8-8-8-8-8-8-8-8------------------------------------------------------------|
D|8-8-8-8-8-8-8-8-5-5-5-5-5-5-5-5-8-8-8-8-8-8-8-8-8-8-8-8-8-8-8-8-8-8-8-8----|
A|6-6-6-6-6-6-6-6-5-5-5-5-5-5-5-5-8-8-8-8-8-8-8-8-8-8-8-8-8-8-8-8-8-8-8-8----|
E|----------------3-3-3-3-3-3-3-3-5-5-5-5-5-5-5-5-6-6-6-6-6-6-5-5-5-5-5-5----|
                                                  ...   ...   ...   ...

2nd Chorus Cont'd:  "You're lovely..."
e|---------------------------------------------------------------------------|
B|---------------------------------------------------------------------------|
G|8-8-8-8-8-8-8-8---------------------------------------------8~-------------|
D|8-8-8-8-8-8-8-8-5-5-5-5-5-5-5-5-8-8-8-8-8-8-8-8-------------x~---5-5x---8~-|
A|6-6-6-6-6-6-6-6-5-5-5-5-5-5-5-5-8-8-8-8-8-8-8-8---8-----8---6~---5-5x---8~-|
E|----------------3-3-3-3-3-3-3-3-5-5-5-5-5-5-5-5-6---6-5---5------3-3x---5~-|

2nd Chorus Cont'd:
e|---------------------------------------------------------------------------|
B|---------------------------------------------------------------------------|
G|-------------8~------------------------------------------------------------|
D|-------------x~---5-5x---8~------------------------------------------------|
A|--8-----8----6~---5-5x---8~-----8------------------------------------------|
E|6---6-5---5-------3-3x---5~---6---6-5x-------------------------------------|

Outro:  (2x) (strumming not defined)
e|---------------------------------------------------------------------------|
B|---------------------------------------------------------------------------|
G|------8---3----------------------------------------------------------------|
D|--5---8---3---3------------------------------------------------------------|
A|--5---6---1---3------------------------------------------------------------|
E|--3-----------1------------------------------------------------------------|

Outro Cont'd:  (2x) (strumming not defined)
e|---------------------------------------------------------------------------|
B|---------------------------------------------------------------------------|
G|------8---3--10------------------------------------------------------------|
D|--5---8---3--10------------------------------------------------------------|
A|--5---6---1---8------------------------------------------------------------|
E|--3------------------------------------------------------------------------|

End on:
e|-----------------|
B|-----------------|
G|-----------------|
D|--5~---5x--------|
A|--5~---5x--------|
E|--3~---3x--------|

GUITAR 2'S PARTS:

Intro:
e|---------------------------------------------------------------------------|
B|------------------------------8--------------------------------8-----------|
G|12~--12~--10~----10--------10----12~--12~--10~----10--------10-------------|
D|-x----x----x---8----8-8/10--------x----x----x---8----8-8/10----------------|
A|10~--10~---8~--------------------10~--10~---8~-----------------------------|
E|---------------------------------------------------------------------------|

Intro Cont'd:
e|---------------------------------------------------------------13-11-10----|
B|---------------------------------------------------8-10-11--11-------------|
G|------10-8-7----------10-8-7------10-8-7----7-8-10-------------------------|
D|-8--8--------8/10--10--------8--8--------10--------------------------------|
A|---------------------------------------------------------------------------|
E|---------------------------------------------------------------------------|

Intro Cont'd:
e|---------13-11-10--------13-11-10------------------------------------------|
B|11/13-13----------11--11----------11/13-11-10-11-10/-----------------------|
G|---------------------------------------------------------------------------|
D|---------------------------------------------------------------------------|
A|---------------------------------------------------------------------------|
E|---------------------------------------------------------------------------|

Verse:  (2x) "Another day left..."
e|---------------------------------------------------------------------------|
B|----7h10p7-----7-----7h10p7-----7-----7h10p7-----7-----7h10p7-----7--------|
G|8-8--------8-8---8-8--------8-8---8-8--------8-8---8-8--------8-8----------|
D|---------------------------------------------------------------------------|
A|---------------------------------------------------------------------------|
E|---------------------------------------------------------------------------|
  ...        ...   ...        ...   ...        ...   ...        ...

Verse Cont'd:
e|---------------------------------------------------------------------------|
B|----7h10p7-----7-----7h10p7-----7-----5h7p5-----5-----5h7p5-----5----------|
G|8-8--------8-8---8-8--------8-8---7-7-------7-7---7-7-------7-7------------|
D|---------------------------------------------------------------------------|
A|---------------------------------------------------------------------------|
E|---------------------------------------------------------------------------|
  ...        ...   ...        ...   ...       ...   ...       ...

Pre Chorus:  (3x)
e|---------------------------------------------------------------------------|
B|---------------------------------------------------------------------------|
G|7-7-5-5-3-3-3-5-5-7-7-7-7-7-7-7-7-7-7-7-7----------------------------------|
D|x-x-x-x-x-x-x-x-x-x-x-x-x-x-x-x-x-x-x-x-x----------------------------------|
A|5-5-3-3-1-1-1-3-3-5-5-5-5-5-5-5-5-5-5-5-5----------------------------------|
E|---------------------------------------------------------------------------|
                          ...   ...   ...

Pre Chorus Cont'd:
e|---------------------------------------------------------------------------|
B|---------------------------------------------------------------------------|
G|15-15-15-15-15-15-15-15-14-14-14-14-14-14-14-14----------------------------|
D|-x--x--x--x--x--x--x--x--x--x--x--x--x--x--x--x----------------------------|
A|13-13-13-13-13-13-13-13-12-12-12-12-12-12-12-12----------------------------|
E|---------------------------------------------------------------------------|

Chorus:  (Play whole thing twice)
e|---------------------------------------------------------------------------|
B|---------------------------------------------------------------------------|
G|12-12-12-12-12-12-12-12-12-12-12-12-12-12-12-12-10-10-10-10-10-10-10-10----|
D|-x--x--x--x--x--x--x--x--x--x--x--x--x--x--x--x--x--x--x--x--x--x--x--x----|
A|10-10-10-10-10-10-10-10-10-10-10-10-10-10-10-10--8--8--8--8--8--8--8--8----|
E|---------------------------------------------------------------------------|

Chorus Cont'd:     2nd Time Around:
e|----------------|----------------------------------------------------------|
B|---------------8|-----------------------8----------------------------------|
G|--10--------10--|----------10--------10----12~-----------------------------|
D|8----8-8/10-----|--------8----8-8/10--------x------------------------------|
A|----------------|--------------------------10~-----------------------------|
E|----------------|----------------------------------------------------------|

Interlude:
e|---------------------------------------------------------------------------|
B|---------------------------------------------------------------------------|
G|-----10-8-7----------10-8-7------10-8-7------------------------------------|
D|8--8--------8/10--10--------8--8--------8/10-8-7-8-7-5/--------------------|
A|---------------------------------------------------------------------------|
E|---------------------------------------------------------------------------|

Repeat Verse:  (Starts with pickslide)
Repeat Pre Chorus:

2nd Chorus:
e|---------------------------------------------------------------------------|
B|---------------------------------------------------------------------------|
G|12-12-12-12-12-12-12-12-12-12-12-12-12-12-12-12-10-10-10-10-10-10-10-10----|
D|-x--x--x--x--x--x--x--x--x--x--x--x--x--x--x--x--x--x--x--x--x--x--x--x----|
A|10-10-10-10-10-10-10-10-10-10-10-10-10-10-10-10--8--8--8--8--8--8--8--8----|
E|---------------------------------------------------------------------------|

2nd Chorus Cont'd:
e|--------------------|
B|---------------8----|
G|--10--------10------|
D|8----8-8/10---------|
A|--------------------|
E|--------------------|

2nd Chorus Cont'd:
e|---------------------------------------------------------------------------|
B|---------------------------------------------------------------------------|
G|12-12-12-12-12-12-12-12-12-12-12-12-12-12-12-12-10-10-10-10-10-10-10-10----|
D|-x--x--x--x--x--x--x--x--x--x--x--x--x--x--x--x--x--x--x--x--x--x--x--x----|
A|10-10-10-10-10-10-10-10-10-10-10-10-10-10-10-10--8--8--8--8--8--8--8--8----|
E|---------------------------------------------------------------------------|

2nd Chorus Cont'd:
e|---------------------------------------------------------------------------|
B|---------------8------------------------------------8----------------------|
G|--10--------10---12~---12-12x---10~----10--------10---12~---12-12x---10~---|
D|8----8-8/10-------x-----x--x-----x---8----8-8/10-------x-----x--x-----x----|
A|-----------------10~---10-10x----8~-------------------10~---10-10x----8~---|
E|---------------------------------------------------------------------------|

2nd Chorus Cont'd:
e|---------------------------------------------------------------------------|
B|---------------------------------------------------------------------------|
G|--10-----------------------------------------------------------------------|
D|8----8-10x-----------------------------------------------------------------|
A|---------------------------------------------------------------------------|
E|---------------------------------------------------------------------------|

Outro:
e|--------------------------------------------------------10-------11--------|
B|---------------------------------------------------8-10----11-11----11-11--|
G|------10-8-7----------10-8-7------10-8-7----7-8-10-------------------------|
D|-8--8--------8/10--10--------8--8--------10--------------------------------|
A|---------------------------------------------------------------------------|
E|---------------------------------------------------------------------------|
                                                             .....    .....

Outro Cont'd:
e|10-------10-------13p11p10-10-------11-------10-------10-------13p11p10----|
B|---11-11----11-11-------------11-11----11-11----11-11----11-11-------------|
G|---------------------------------------------------------------------------|
D|---------------------------------------------------------------------------|
A|---------------------------------------------------------------------------|
E|---------------------------------------------------------------------------|
     .....    .....             .....    .....    .....    .....

Outro Cont'd:
e|10-------11-------10-------10-------13p11p10------------------13-11-10-----|
B|---11-11----11-11----11-11----11-11----------13-11-10-11---11----------11--|
G|---------------------------------------------------------------------------|
D|---------------------------------------------------------------------------|
A|---------------------------------------------------------------------------|
E|---------------------------------------------------------------------------|
     .....    .....    .....    .....

Outro Cont'd:
e|-10h11p10-----13-11-10---------------------13-11-10------10h11p10-----13-11|
B|-----------11----------11/13-11-10-11---11----------11-------------11------|
G|---------------------------------------------------------------------------|
D|---------------------------------------------------------------------------|
A|---------------------------------------------------------------------------|
E|---------------------------------------------------------------------------|

Outro Cont'd:
e|10-------------------------------------------------------------------------|
B|---11/13-11-10-11-11v----11/-----------------------------------------------|
G|---------------------------------------------------------------------------|
D|---------------------------------------------------------------------------|
A|---------------------------------------------------------------------------|
E|---------------------------------------------------------------------------|
Acordes para:
    Composição: Rufio

    0 comentários

      mostrar mais comentários

      Conseguiu tocar?

      0tocaram0ainda não

      Grave um vídeo tocando In my eyes e mande pra gente!

      00:00 / 00:00
      outros vídeos desta música
      repetirqualidadeautomática
      Outro vídeos desta música
        00:00 / 00:00
        automática
        OK