Cifra Club

Siento que no estás

Saratoga

Cifra: Principal (violão e guitarra)
tom: Am
      Am         F           G        Am 
E|------0----------1-----------3---------0-----|
B|-----1-1--------1-1---------3-3-------1-1----|
G|----2---2------2---2-------4---4-----2---2---|
D|---2----------3-----------5---------2--------|
A|---------------------------------------------|
E|---------------------------------------------|


Llorando en la noche, cantando sin ti. | arpegio 1
Recuerdo momentos, que añoro vivir.    |

Am             F    G             Am 
Me faltan tus manos, tu paso al andar.
Am                F    G                 Am 
No encuentro el camino ¡Siento que no estás!

F                 G          F -G     F 
No quiero que el mundo nos separe más.
F              G            F -G      E 
Jura que a mi lado siempre vas a estar.
F               G          F -G      F 
No quiero el destino ni verte marchar.
F             G               Am   ( 5º traste)
¡Tan sólo te pido que mires atrás!

Am              F     G            Am 
Llorando en la noche, cantando sin ti,
Am          F      G             Am 
Recuerdo momentos, tan lejos de ti….

F             G              F -G     F 
Si vienes conmigo el tiempo curará
F            G              F -G       E 
las viejas heridas que nos hizo andar.
F               G            F -G      F 
Te encuentro perdido, sin sentido estás.
F             G                Am   ( 5º traste)
¿Tan solo te pido que mires atrás!

Am                 E 
Di que conmigo de nuevo reirás.
Am                      E 
Di que en tu pecho aun puedo llorar
Am                    Em 
No es tan difícil volver a soñar.

 Dm                                    Am 
¿Rompe ese muro que un día nos supo alejar!
Dm                                          Am 
Volvamos a sitios lejanos que en tiempos pasados
vivimos los dos…
Dm                                        Am   E 
Vayamos en busca del lago porque aun no secó…

Dm 
Dejemos orgullos mundanos.
               Am 
Sabes que arrimado siempre estaré yo.
Dm 
Luchemos juntos contra el tiempo
            F    G     Am  ( 5º traste)
que nos separó…


G  O (Este pa mi colega Dani,
      el de la guitarra eléctrica)


Am                 E 
Di que conmigo de nuevo reirás.
Am                      E 
Di que en tu pecho aun puedo llorar
Am                    Em 
No es tan difícil volver a soñar.
Dm                                      Am 
¿Rompe ese muro que un día nos supo alejar!


Dm                                         Am 
Volvamos a sitios lejanos que en tiempos pasados
vivimos los dos…
Dm                                         F   G  
Vayamos en busca del lago porque aun no secó…

Am              F    G             Am 
Llorando en la noche, cantando sin ti,
Am          F     G              Am 
Recuerdo momentos, que añoro vivir….

Arpegio 2:

      F           G          F       G      F 
E|------1-----------3------------------3------1------|
B|-----1-1---------3-3----------1------------1-1-----|
G|----2---2-------4---4--------2------4-----2---2----|
D|---3-----------5------------3------5-----3---------|
A|---------------------------------------------------|
E|---------------------------------------------------|
*                 *            *      *      *
No quiero que el mundo nos sepa------re     más.


      F          G            F          E 
E|------1----------3------------1----------2---------|
B|-----1-1--------3-3----------1-1--------0-0--------|
G|----2---2------4---4--------2---2------1---1-------|
D|---3----------5------------3----------2------------|
A|---------------------------------------------------|
E|---------------------------------------------------|
*                *             *       *
Jura que A E    lado siempre  vas a estar.


      F           G          F        G       F 
E|------1-----------3--------------------3------1-----|
B|-----1-1---------3-3----------1--------------1-1----|
G|----2---2-------4---4--------2--------4-----2---2---|
D|---3-----------5------------3--------5-----3--------|
A|----------------------------------------------------|
E|----------------------------------------------------|
*                 *          *         *    *
No quiero el  destino ni  verte       marchar.

                                           5º 5º 7º 5º(trastes)
 F           G                E           Am -F -G  -Am 
¡Tan sólo te pido que mires atráaa-aa-aa--as!

G   #            C#m 
Río si tú eres feliz.
G   #                 C#m 
Lloro si triste es tu fin.
G   #                C#m 
Sangro si sangro por ti…
G   #
…¿vamos amigo hacia ti!
00:00 / 00:00
Outros vídeos desta música
Repetir
Outros vídeos desta música
Composição de Letra y Musica: leo Jimenez
10 exibições
    • ½ Tom
    • Am
    • Bbm
    • Bm
    • Cm
    • C#m
    • Dm
    • Ebm
    • Em
    • Fm
    • F#m
    • Gm
    • G#m
  • Adicionar à lista

    0 comentários

    Ver todos os comentários

    Conseguiu tocar?

    0 Tocaram 0 Ainda não

    Grave um vídeo tocando Siento que no estás e nos envie!

    00:00 / 00:00

    Cifra Club Pro

    Aproveite o Cifra Club com benefícios exclusivos e sem anúncios
    Cifra Club Pro
    Aproveite o Cifra Club com benefícios exclusivos e sem anúncios
    OK