Cifra Club

Vientos De Guerra

Saratoga

Cifra: Principal (violão e guitarra)
tom: C#m
E  D#  // C#  // E  D#  E  D#  // A  // C#  //

E  E  D#  // C#  // E  D#  E  D#  // A  // A#  F#  G#  

G#                 A#  A#  G#   A# 
Cuenta hasta diez
G#                 A#  A#  A#  A  A# 
Cierra los ojos
G#                 A#  A#  G#   A# 
Alrededor
G#                 A#  A#  A#  A  A# 
Del infinito

   D#  A#  A 
Pasión  cruel
   D#  A#  A  F# 
Querer ser  libre
Re#La# La
Contemplar
E|------------|
B|------------|
G|------------|
D|--11----11--|
C#  C#  C#    |-----11-----|
Tu ejecución  |9-----------|

E|--------------|
B|--------------|
G|----------11--|
D|-------12-----|
D  D  D  D   |----12--------|
Desolación   |-10-----------|

E  D#  // C#  // E  D#  E  D#  // A  // C#  //

E  E  D#  // C#  // E  D#  E  D#  // A  // A#  F# 

G#                 A#  A#  G#   A# 
Sueños de paz
G#                 A#  A#  A#  A  A# 
Vientos de guerra
G#                 A#  A#  G#   A# 
Tierra sin ley
G#                 A#  A#  A#  A  A# 
Odio que ciega

  D#  A#  A 
No volverás
  D#  A#  A  F# 
A ver sus caras
 Re#La# La
contemplar
E|------------|
B|------------|
G|------------|
D|--11----11--|
C#  C#  C#    |-----11-----|
Tu ejecución  |9-----------|


E|--------------|
B|--------------|
G|----------11--|
D|-------12-----|
D  D  D  D   |----12--------|
Resurrección |-10-----------|


        D#                D# 
Junto al mar le vieron crecer
        D#             C# 
Dicen que voló con las águilas
      E              B 
Fue David contra Goliat
            D#     E    C# 
Su espada a punto brillará

      D#              D# 
En su mente hay una razón
      D#                 C# 
Para huir, muy pronto regresará
      E             B 
Proclamar un nuevo país
            D#   E   F# 
Su pueblo entero luchará

E  D#  // C#  // E  D#  E  D#  // A  // C#  //

E  E  D#  // C#  // E  D#  E  D#  // A  // A#  F# 

E|-13-6-8-9-13-6-8-9-13-6-8-9-13-6-8-9-14-6-8-9-14-6-8-9-14-6-8-9-14-6-8-9|
B|------------------------------------------------------------------------|
G|------------------------------------------------------------------------|
D|------------------------------------------------------------------------|
A|------------------------------------------------------------------------|
E|------------------------------------------------------------------------|

E|-16-6-8-9-16-6-8-9-16-6-8-9-16-6-8-9-14-6-8-9-14-6-8-9-14-6-8-9-14-6-8-9|
B|------------------------------------------------------------------------|
G|------------------------------------------------------------------------|
D|------------------------------------------------------------------------|
A|------------------------------------------------------------------------|
E|------------------------------------------------------------------------|


 D#   A#   B   D#   A#   B   F#   D#   A#   B   C# 

 C#   C#   C#   C#  |-----|        D   D    D   D      |----7|
E|-7---| |---7-|
                    |7-7--|                            |--7--|
                    |7----|                            |-7---|
D|-----| |-----|
A|-----| |-----|


E  D#  // C#  // E  D#  E  D#  // A  // C#  // D 

E  E  D#  // C#  // E  D#  E  D#  // A  // A#  F#  A // A#  F#  Am 
Composição de Jeronimo Ramiro
    • ½ Tom
    • Am
    • Bbm
    • Bm
    • Cm
    • C#m
    • Dm
    • Ebm
    • Em
    • Fm
    • F#m
    • Gm
    • G#m
  • Adicionar à lista

    0 comentários

    Ver todos os comentários

    Conseguiu tocar?

    0 Tocaram 0 Ainda não

    Grave um vídeo tocando Vientos De Guerra e nos envie!

    00:00 / 00:00
    Outros vídeos desta música
    Repetir Qualidade Automático
    Outros vídeos desta música
    00:00 / 00:00
    Automático

    Cifra Club Pro

    Aproveite o Cifra Club com benefícios exclusivos e sem anúncios
    Cifra Club Pro
    Aproveite o Cifra Club com benefícios exclusivos e sem anúncios
    OK