Cifra Club

Always Somewhere

Scorpions

Cifra: Versão 2 (violão e guitarra)
tom: C
Intro: C  G  F  E  Am (5x)

          C  G  Am
E|--------------0---------3-----3--------0--------0--------------0-------|
B|--------1-------1---------3-----3--------3--------3------1-------1-----|
G|----------0-------0---------0-----0--------2--------2------2-------2---|
D|------------2-------2----------------3--------2--------------2---------|
A|--0-2-3------------------------------------------------0---------------|
E|----------------------3------------------------------------------------|

C             G             F7+       E     Am
   Arrive at seven the place feels good
C                 G             Am
   No time to call you today
C                    G             F7+  E      Am
   Encores till eleven then Chinese food
C                  G        Am
   Back to the hotel again

   Solo: C  G  F7+  E  Am  C  G  Am
E|-15p13-12-13p12-10-----------------15p13-12-15p13-12-17-15h17-15-12h13-12--|
B|-------------------10-12-13-12-10b-----------------------------------------|
G|---------------------------------------------------------------------------|
D|---------------------------------------------------------------------------|
A|---------------------------------------------------------------------------|
E|---------------------------------------------------------------------------|

C                G               F7+   E     Am
   I call your number the line ain't free
C              G                      Am
   I'd like to tell you come to me
C                  G         F7+           E             Am
   A night without you   seems like a lost dream
C                 G                  Am
   Love I can't tell you how I feel

       C           G                Am
  Always somewhere       miss you where I've been
F         G                 C        G
  I'll be back to love again  (2x)

Solo 4x: C  G  F  E  Am

E|-12b-10b-7h10-10p7-5h7-5-----------------------------0-12-10-12-------------|
B|---------------------------------------------------------------10-----------|
G|---------------------------12-14-12--14-12h14-12-10-9-----------------------|
D|-------------------------14--------14---------------------------------------|
A|----------------------------------------------------------------------------|
E|----------------------------------------------------------------------------|

E|-12-15-17-15-13-12-10------------------------------------------12b-12-10-8--|
B|---------------------10-12-13-13p12-10h12---------10-15p12-10-8-----------10|
G|----------------------------------------------9h12--------------------------|
D|-----------------------------------------10sus------------------------------|
A|----------------------------------------------------------------------------|
E|----------------------------------------------------------------------------|

C            G            F7+ E     Am
  Another morning another place
C             G                  Am
  The only day off is far away
C              G          F7+      E             Am
  But every city has seen me in the end
C                      G          Am
  And brings me to you again

       C           G               Am
  Always somewhere      miss you where I've been
F        G                  C       G
  I'll be back to love again  (2x)

Finalização 2x: C  G  F  E  Am
00:00 / 00:00
Outros vídeos desta música
Repetir
Outros vídeos desta música
Composição de Klaus Meine / Rudolf Schenker
Colaboração e revisão:
54.083 exibições
    • ½ Tom
    • A
    • Bb
    • B
    • C
    • Db
    • D
    • Eb
    • E
    • F
    • F#
    • G
    • Ab
  • Adicionar à lista

    0 comentários

    Ver todos os comentários

    Conseguiu tocar?

    12 Tocaram 1 Ainda não

    Grave um vídeo tocando Always Somewhere e nos envie!

    Entre para oCifra Club PRO

    Tenha acesso a benefícios exclusivos no App e no Site

    • Chega de anúncios

    • Prioridade de compra em lançamentos

    • Mais recursos no app do Afinador

    • Atendimento Prioritário

    • Descontos nos produtos Cifra Club

    • Ajude a produzir mais conteúdo

    00:00 / 00:00
    Capítulos
    • Tocando a Música
    • Dicas iniciais / Equipamentos
    • Introdução 1 e 2
    • Introdução - Parte 1 de 4
    • Introdução - Parte 2 de 4
    • Introdução - Parte 3 de 4
    • Introdução - Parte 4 de 4
    • Introdução - Guitarra Solo
    • Dicas Primeira Estrofe
    • Primeira Estrofe
    • Ensinando Primeira Estrofe
    • Solo da Primeira Estrofe
    • Dicas Segunda Estrofe e Refrão
    • Tocando Primeiro Refrão
    • Ensinando Primeiro Refrão
    • Dicas Solo Principal
    • Tocando Solo Principal
    • Solo - Parte 1 de 4
    • Solo - Parte 2 de 4
    • Solo - Parte 3 de 4
    • Solo - Parte 4 de 4
    • Dicas Terceira Estrofe e Segundo Refrão
    • Tocando Terceira Estrofe e Segundo Refrão
    • Ensinando Final - Parte 1 de 2
    • Ensinando Final - Parte 2 de 2
    • Dicas Finais / Encerramento
    • Ficha Técnica

    Cifra Club Pro

    Aproveite o Cifra Club com benefícios exclusivos e sem anúncios
    Cifra Club Pro
    Aproveite o Cifra Club com benefícios exclusivos e sem anúncios
    OK