Notificações Amigos pendentes

      Scorpions

      Believe in love

      20.908 exibições
      Tom: D#
      Intro base [Cm5 Bb5 Cm5 G#5 Eb5 Bb5]
      
      Riff 1 (solo intro)
      
      e|----------------------------------------------------------------------                          
      B|------8--8-6-----6--6--8-9-8--8-6---------------8-6~------------------
      D|--5-8--------8-7------------------8-5--8-5-3--8-----------------------
      G|----------------------------------------------------------------------
      A|----------------------------------------------------------------------
      E|----------------------------------------------------------------------
      
      
      Riff 2 
      
           Cm      Bb*     Bb      Cm       G#     Eb      Bb*        Bb* 
      e|--------3-------3-------6-------3-------4-------3-------3---------3---
      B|----------------------6-----------------------------------3---------3-
      D|------5-------3-----7---------5-------5-------3-------3---------3-----
      G|----5-------3-----8---------5-------6-------5-------3---------3-------
      A|--3-------1---------------3-------6-------6-------1---------1---------
      E|----------------------------------------------------------------------
      
      
      Riff 3 (O:29)
      
      e|----------------------------------------------------------------------
      B|----------------------------------------------------------------------
      D|----------------------------------------------------------------------
      G|------------------------------------------------------------3/5-3-----
      A|------------------------------------------------------------------5-3-
      E|----------------------------------------------------------------------
      
      
      Riff 4
      
          G#5 Bb5  G#5  Bb5  G#5 Bb5   C5
      e|----------------------------------------------------------------------
      B|----------------------------------------------------------------------
      D|----------------------------------------------------------------------
      G|--6-6-8-8-8-6-6-8-8-8-6-6-8-8-8-10-10-10-10-10------------------------
      A|--6-6-8-8-8-6-6-8-8-8-6-6-8-8-8-10-10-10-10-10------------------------
      E|--4-4-6-6-6-4-4-6-6-6-4-4-6-6-6-8--8--8--8--8-------------------------
      
      
      Riff 5 (0:57)
      
      e|--------------------------------20b-20/18----18-20/18----18-20b-------
      B|------------------------------------------20----------20--------------
      D|----------------------------------------------------------------------
      G|----------------------------------------------------------------------
      A|----------------------------------------------------------------------
      E|----------------------------------------------------------------------
      
      
      Riff 6
      
          G#5       Bb5       C5                      G#5       Bb5         
      e|------------------------------------------------------------------6~--
      B|----------------------------------------------------------------------
      D|----------------------------------------------------------------------
      G|--6-6-6-6-6-8-8-8-8-8-10-10-10-10-10-10-10-10-6-6-6-6-6-8-8-8-8-8-----
      A|--6-6-4-4-4-8-8-8-8-8-10-10-10-10-10-10-10-10-6-6-6-6-6-8-8-8-8-8-----
      E|--4-4-4-4-4-6-6-6-6-6-8--8--8--8--8--8--8--8--4-4-4-4-4-6-6-6-6-6-----
      
          x x x x   x x x x   x  x  x  x              x x x x   x x x x
      
      Riff 7 (Refrão) 
      
         Eb5 Bb5   C5  G#5 Bb5   Eb5 G#  Bb       Eb5 Bb5   C5  G#5  Bb5  Eb5
      e|-----------------------------------------|----------------------------
      B|-----------------------------------------|----------------------------
      D|-8-8-------5-5-----------8-8-------------|8-8-------5-5-----------8-8-
      G|-8-8-8-8-8-5-5-6-6-8-8-8-8-8-------------|8-8-8-8-8-5-5-6-6-8-8-8-8-8-
      A|-6-6-8-8-8-3-3-6-6-8-8-8-6-6-----1/3-5-6-|6-6-8-8-8-3-3-6-6-8-8-8-6-6-
      E|-----6-6-6-----4-4-6-6-6-----3/4---------|----6-6-6-----4-4-6-6-6-----
      
      
      Riff 8 (Acompanha a voz do vocal no refrão)|obs:(vc pode substituir esse
      riff por um dedilhado em Eb Bb Cm G# Bb Eb G# Bb|Eb Bb Cm G# Bb Eb, daí
      vc vê qual fica melhor e aplica =P)
      
      Riff 8  
      
      e|---------------------------------------------------------10/11~-------
      B|-8-8-9-11-11-11/13-8-------------------------------11/13--------------
      D|---------------------8-8-8-10-10/12-10-10-12~-12/13-------------------
      G|----------------------------------------------------------------------
      A|----------------------------------------------------------------------
      E|----------------------------------------------------------------------
      
      
      e|----------------------------------------------------------------------
      B|-8-8-9-11-11-11/13-13b------------------------------------------------
      D|-----------------------8-8-8-10-10/12-10-8-7/8~-----------------------
      G|----------------------------------------------------------------------
      A|----------------------------------------------------------------------
      E|----------------------------------------------------------------------
      
      
      Riff 9
      
      e|----------------------------------------------------------------------
      B|------8--8/9-8/9-8-----6--6--8/9-8--8-6---------------8-6~------------
      D|--5-8--------------8-7------------------8-5--8-5-3--8-----------------
      G|----------------------------------------------------------------------
      A|----------------------------------------------------------------------
      E|----------------------------------------------------------------------
      
      
      Riff 10
      
      e|-----------------------------------20b-18/20b-------------------------
      B|----------------------------------------------------------------------
      D|----------------------------------------------------------------------
      G|--6-6-8-8-8-6-6-8-8-8-6-6-8-8-8-10------------------------------------
      A|--6-6-8-8-8-6-6-8-8-8-6-6-8-8-8-10------------------------------------
      E|--4-4-6-6-6-4-4-6-6-6-4-4-6-6-6-8-------------------------------------                       
      
      
      Riff 1 + base intro (0:00)
      Riff 2 (0:16) 
      Riff 3 (0:29)
      Riff 2 (0:30)
      Riff 4 (0:45)
      Riff 5 (0:57)
      Riff 6 (0:59)
      Riff 7 + Riff 8 ou base dedilhada (1:12)
      Riff 1 + base intro (1:37)
      Riff 9 + base intro (1:52)
      Riff 2 (2:07) 2x
      Riff 10 (2:36)
      Riff 6 (2:51)
      Riff 7 + Riff 8 ou base dedilhada (3:04) 3x
      
      Introd=(Cm Bb Cm G# Eb Bb)2x 
      
      Cm          Bb
      How does it fell baby?
                     Cm       G#
      To taste sweet revenge?
             Eb            G      Cm
      Do you want me on my knees
                  Bb
      How does it fell baby?
                         Cm       G#
      To let me feel yor strengh?
               Eb               G
      Don't be cruel, can't you see?
      G#                    Bb
      If you don't catch me now                           
        G#                 Bb                             
      I can't stop falling down                           
           G#                     Bb           Cm         
      Just one more night and the devil got my soul       
                  G#               Bb          Cm         
      I need your love baby, don't tell me "No Way"       
           G#          Bb                                 
      Oh I miss you, so much more than words can say
      
      Segunda Parte
      
      How does it feel babe
      To kill our destiny
      I swear I'm not gonna crawl oh no
      How does it feel babe
      To make a fool out of me
      How can you be so cold
      If you don't catch me now
      I can't stop falling down
      Just one more night and the devil's got my soul
      I need your love babe don't treat me this way
      Ooh I miss you, I miss you
      
      Refrão
      
      
      Eb       Bb               Cm                        
      Baby our love's got what it takes                     
         G#               Bb        Eb     Cm   Bb        
      To give us one more chance to start, once again     
      Eb       Bb               Cm                        
      Baby our love will find a way                       
         G#           Bb       Eb                         
      as long as we believe in love.                      
      
      Repete introd e segunda parte
        Composição: Klaus Meine / Rudolf SchenkerColaboração e revisão:
        • Tuca
        • Bruno Nogueira
        • Henrique

        Comentários 1

        140 .
        140 cancelar

        conseguiu tocar?

        covers

        Grave um vídeo tocando Believe in love e mande pra gente!

        Ex.: http://www.youtube.com/watch?v=0IvSvIwGdwk
        ver covers de outras músicas »
        0:00 / 0:00

        Capítulos

          2 versões de violão dificuldade exibições contribuição e correção
          2 versões de guitarra dificuldade exibições contribuição e correção
          2 versões de cavaco dificuldade exibições contribuição e correção
          2 versões de teclado dificuldade exibições contribuição e correção
          1 versão de Guitar Proformatodownloadscontribuição
          play/pausefechar subir/descer velocidade
          6ª corda E5ª corda A4ª corda D3ª corda G2ª corda B1ª corda E
            acordes
            publicidade
            fechar
            ok