Cifra Club

Aprenda

Stiches

Shawn Mendes

Cifra: Principal (violão e guitarra)
Tom: C
[Intro]

          Am7                G5                C               Fsus2
E|-----------------|-----------------|-----------------|-----------------|
B|-------1---------|-------3---------|-------1---------|-------1---------|
G|---0-------0---0-|---0-------0---0-|---0-------0---0-|---0-------0---0-|
D|-----------------|-----------------|-----------------|-----------------|
A|-0---0---0---0---|-----------------|-3---3---3---3---|-----------------|
E|-----------------|-3---3---3---3---|-----------------|-1---1---1---1---|

Am7              G5                  C   Fsus2
  I thought that I've been hurt before

Am7                   G5                  C   Fsus2
  But no one's ever left me quite this sore

Am7              G5            C     Fsus2
  Your words cut deeper than a knife

        Am7             G5                  C   Fsus2
  Now I need someone to breathe me back to life

          Am7                G5                C               Fsus2
E|-----------------|-----------------|-----------------|-----------------|
B|-------1---------|-------3---------|-------1---------|-------1---------|
G|---0-------0---0-|---0-------0---0-|---0-------0---0-|---0-------0---0-|
D|-----------------|-----------------|-----------------|-----------------|
A|-0---0---0---0---|-----------------|-3---3---3---3---|-----------------|
E|-----------------|-3---3---3---3---|-----------------|-1---1---1---1---|

Fsus2                    G5       Am7
  Got a feeling that I'm going under

Am7
  But I know that I'll make it out alive

Fsus2               G5
  If I quit calling you my lover

Am7 
  Move on

          Fsus2                G5                Am7
E|-----------------|-----------------|-----------------|-----------------|
B|-------1---------|-------3---------|-------1---------|-------1---------|
G|---0-------0---0-|---0-------0---0-|---0-------0---0-|---0-------0---0-|
D|-----------------|-----------------|-----------------|-----------------|
A|-----------------|-----------------|-3---3---3---3---|-3---3---3---3---|
E|-1---1---1---1---|-3---3---3---3---|-----------------|-----------------|

               Am7                        G5
  You watch me bleed until I can't breathe

               C       Csus2        Fsus2
  I'm shaking, falling onto my knees

               Am7              G5
  And now that I'm without your kisses

C  Csus2            Fsus2
  I'll be needing stitches

      Am7                G5
  I'm tripping over myself

             C   Csus2              Fsus2
  I'm aching begging you to come help

               Am7              G5
  And now that I'm without your kisses

C  Csus2            Fsus2
  I'll be needing stitches

Am7             G5                C  Csus2   Fsus2
  Just like a moth drawn to a flame

Am7                      G5                 C  Csus2  Fsus2
  Oh, you lured me in, I couldn't sense the pain

Am7           G5                C  Csus2  Fsus2
  Your bitter heart cold to the touch

                Am7             G5
  Now I'm gonna reap what I sow

                  C  Csus2     Fsus2
  I'm left seeing red on my own

Fsus2                    G5
  Got a feeling that I'm going under

Am7
  But I know that I'll make it out alive

Fsus2               G5
  If I quit calling you my lover

Am7 (Tocar o acorde e deixar soar)
  Move on

             Am7                       G5
You watch me bleed until I can't breathe

               C       Csus2        Fsus2
  I'm shaking, falling onto my knees

               Am7              G5
  And now that I'm without your kisses

C  Csus2            Fsus2
  I'll be needing stitches

      Am7                G5
  I'm tripping over myself

             C   Csus2              Fsus2
  I'm aching begging you to come help

               Am7              G5
  And now that I'm without your kisses

C  Csus2            Fsus2
  I'll be needing stitches

Am7
  Needle and the thread

        G5
  Gotta get you out of my head

C  Csus2
  Needle and the thread

       Fsus2
  Gonna wind up dead

Am7
  Needle and the thread
        
G5
  Gotta get you out of my head

C  Csus2
  Needle and the thread

        Fsus2
  Gonna wind up dead

Am7
  Needle and the thread

        G5
  Gotta get you out of my head

C  Csus2                Fsus2
  Get you out of my head
               
               Am7                        G5
  You watch me bleed until I can't breathe

               C       Csus2        Fsus2
  I'm shaking, falling onto my knees

  (Falling on my knees)

               Am7              G5
  And now that I'm without your kisses

C  Csus2            Fsus2
  I'll be needing stitches 

  (And I'll be needing stitches)

      Am7                G5
  I'm tripping over myself

             C   Csus2              Fsus2
  I'm aching begging you to come help

  (Begging, "baby, please")

  (And now that)

Am7                G5
  I'm without your kisses

C  Csus2            Fsus2
  I'll be needing stitches


  Am7                G5
  I'm without your kisses

C  Csus2            Fsus2
  I'll be needing stitches
Colaboração e revisão:
  • Camila Zagatto
18.509 exibições
    • ½ Tom
    • A
    • Bb
    • B
    • C
    • Db
    • D
    • Eb
    • E
    • F
    • F#
    • G
    • Ab
  • Adicionar à lista

    0 comentários

    Mostrar mais comentários

    Conseguiu tocar?

    3 Tocaram 2 Ainda não

    Grave um vídeo tocando Stiches e mande pra gente!

    00:00 / 00:00
    outros vídeos desta música
    repetir qualidade Automático
    Outros vídeos desta música
    00:00 / 00:00
    Automático

    Cifra Club Pro

    Aproveite o Cifra Club com benefícios exclusivos e sem anúncios
    7 dias grátis
    Cifra Club Pro
    Aproveite o Cifra Club com benefícios exclusivos e sem anúncios
    7 dias grátis
    OK