Enviar cifraEntrar

Sutilmente

Skank

Tab de baixo: Principal
exibições 12.012
(intro e verso)
G|------------------|
D|------------------|  (3x)
A|------------4~----|
E|--2~--------------|

Quando eu estiver bobo....
G|------------------|
D|------------------|  
A|--2~----------4~--|
E|----------2~------|

(verso)
G|------------------|
D|------------------|  (3x)
A|------------4~----|
E|--2~--------------|

Quando eu estiver bobo...
G|-----------------------|
D|-----------------------|  
A|--2~-------6~-6~-6/----|
E|-----------------------|

Não me mate não...Dentro de ti....Dentro de ti
G|---------------------------|
D|---------------------------|  
A|--2~----------2-1----------|
E|---------4~--------4~------|

(refrão)
G|---------------------------|
D|---------------------------|   (4x) 
A|------2-2-1----444444------| 
E|--2-2-------44-------------|

(ponte)
G|----------------------|
D|----------------------|   
A|--4~---4~---4~---4~---| 
E|----------------------|

(verso)
G|---------------------|
D|---------------------|  (4x)
A|------------44~-4/---|
E|--22~-2/-------------|

E quando eu estiver bobo...
G|----------------------------|
D|----------------------------|  
A|--22~-2/-----66666666666----|
E|----------------------------|

Não me mate não...Dentro de ti....Dentro de ti
G|---------------------------|
D|---------------------------|  
A|--2~----------2-1----------|
E|---------4~--------4~------|

(refrão)
G|---------------------------|
D|---------------------------|   (4x) 
A|------2-2-1----444444------| 
E|--2-2-------44-------------|

(ponte)
G|-----------------------|
D|-----------------------|   
A|-444444444444444444444-| 
E|-----------------------|

(refrão)
G|---------------------------|
D|---------------------------|   (7x) 
A|------2-2-1----444444------| 
E|--2-2-------44-------------|

(final)

G|----------------------------|
D|----------------------------|   
A|--44~---44~---44~---44~-4/--| 
E|----------------------------|
  • 1
  • 2
  • 3
  • 4
  • 5
  • 6
  • 7
  • 8
  • 9
  • 10
  • 11
  • 12
    Composição: Nando Reis / Samuel RosaColaboração e revisão:
    • Vinicius Francesch

    0 comentários

      mostrar mais comentários
      00:00 / 00:00
      outros vídeos desta música
      repetirqualidadeautomática
      • automática
      Outro vídeos desta música
        00:00 / 00:00
        automática
        • automática
        fecharplay/pause subir/descer velocidade
        fechar
        OK