Cifra Club

Angel Of Death

Slayer

Cifra: Principal (violão e guitarra)
tom: Bb (forma dos acordes no tom de B) Afinação: Eb Ab Db Gb Bb Eb
Gtr I
    PM------------------|       PM------------------|
E|---------------------------|---------------------------|
B|---------------------------|---------------------------|
G|---------------------------|---------------------------|
D|---------------------------|---------------------------|
A|-2-----------------------3-|-3-----------------------4-|
E|-0-0-0-0-0-0-0-0-0-0-0-0-1-|-1-0-0-0-0-0-0-0-0-0-0-0-2-|

    PM------------------------|
E|-------------------------------|-----------------|
B|-------------------------------|-----------------|
G|-------------------------------|-----------------|
D|-------------------------------|-----------------|
A|-4-----------------------------|-------7-(7)--6--|
E|-2-0-0-0-0-0-0-0-0-0-0-0-0-0-0-|-1-0-1-5-(5)--4--|

    PM------------------|       PM------------------|
E|---------------------------|---------------------------|
B|---------------------------|---------------------------|
G|---------------------------|---------------------------|
D|---------------------------|---------------------------|
A|-2-----------------------3-|-3-----------------------4-|
E|-0-0-0-0-0-0-0-0-0-0-0-0-1-|-1-0-0-0-0-0-0-0-0-0-0-0-2-|

    PM------------------------|
E|-------------------------------|-----------------|
B|-------------------------------|-----------------|
G|-------------------------------|-----------------|
D|-------------------------------|-----------------|
A|-4-----------------------------|-------7-(7)--6--|
E|-2-0-0-0-0-0-0-0-0-0-0-0-0-0-0-|-1-0-1-5-(5)--4--|

      PM------------------|       PM------------------|
E|----------------------------|----------------------------|
B||o---------------------------|----------------------------|
G|----------------------------|----------------------------|
D|----------------------------|----------------------------|
A||o-2-----------------------3-|-3-----------------------4--|
E|--0-0-0-0-0-0-0-0-0-0-0-0-1-|-1-0-0-0-0-0-0-0-0-0-0-0-2--|

    PM------------------------|
E|-------------------------------|------------------||
B|-------------------------------|-----------------o||
G|-------------------------------|------------------||
D|-------------------------------|------------------||
A|-4-----------------------------|-------7-(7)--6--o||
E|-2-0-0-0-0-0-0-0-0-0-0-0-0-0-0-|-1-0-1-5-(5)--4---||

                      PM------------------|       PM------------------|
E|-----------------|---------------------------|---------------------------|
B|-----------------|---------------------------|---------------------------|
G|-----------------|---------------------------|---------------------------|
D|-----------------|---------------------------|---------------------------|
A|-------7-(7)--6--|-2-----------------------3-|-3-----------------------4-|
E|-1-0-1-5-(5)--4--|-0-0-0-0-0-0-0-0-0-0-0-0-1-|-1-0-0-0-0-0-0-0-0-0-0-0-2-|

    PM------------------------|                       PM------------------|
E|-------------------------------|-----------------|----------------------------|
B|-------------------------------|-----------------|----------------------------|
G|-------------------------------|-----------------|----------------------------|
D|-------------------------------|-----------------|----------------------------|
A|-4-----------------------------|-------7-(7)--6--|-2-----------------------3--|
E|-2-0-0-0-0-0-0-0-0-0-0-0-0-0-0-|-1-0-1-5-(5)--4--|-0-0-0-0-0-0-0-0-0-0-0-0-1--|

    PM------------------|       PM------------------------|
E|---------------------------|-------------------------------|------------------|
B|---------------------------|-------------------------------|------------------|
G|---------------------------|-------------------------------|------------------|
D|---------------------------|-------------------------------|------------------|
A|-3-----------------------4-|-4-----------------------------|-------7-(7)--6---|
E|-1-0-0-0-0-0-0-0-0-0-0-0-2-|-2-0-0-0-0-0-0-0-0-0-0-0-0-0-0-|-1-0-1-5-(5)--4---|

              Gtrs I, II
                PM------|   PM------|     PM------|
E|----------||-------------------------|---------------------|
B|----------||-------------------------|---------------------|
G|----------||-------------------------|---------------------|
D|-3--------||-------------3-----------|---------------------|
A|-3--------||-2-----------1-----------|-2-------------------|
E|-1--------||-0-0-0-0-0-0---0-0-0-0-0-|-0-0-0-0-0-0-1-4-1---|

    PM------|   PM------|     PM------|           PM------|   PM------|
E|-------------------------|-------------------|-------------------------|
B|-------------------------|-------------------|-------------------------|
G|-------------------------|-------------5--8--|-------------------------|
D|-------------3-----------|-------------3--6--|-------------3-----------|
A|-2-----------1-----------|-2-----------3--6--|-2-----------1-----------|
E|-0-0-0-0-0-0---0-0-0-0-0-|-0-0-0-0-0-0-1--4--|-0-0-0-0-0-0---0-0-0-0-0-|

    PM------|            PM------|   PM------|     PM------|
E|--------------------|-------------------------|---------------------||
B|--------------------|-------------------------|---------------------||
G|--------------------|-------------------------|-------------9--10---||
D|--------------------|-------------3-----------|-------------7---8---||
A|-2------------------|-2-----------1-----------|-2-----------7---8---||
E|-0-0-0-0-0-0-1-4-1--|-0-0-0-0-0-0---0-0-0-0-0-|-0-0-0-0-0-0-5---6---||

 Verse 1
    PM------|   PM------|     PM------|
E|-------------------------|--------------------|
B|-------------------------|--------------------|
G|-------------------------|--------------------|
D|-------------3-----------|--------------------|
A|-2-----------1-----------|-2------------------|
E|-0-0-0-0-0-0---0-0-0-0-0-|-0-0-0-0-0-0-1-4-1--|

    PM------|   PM------|     PM------|
E|-------------------------|-------------------|
B|-------------------------|-------------------|
G|-------------------------|-------------5--8--|
D|-------------3-----------|-------------3--6--|
A|-2-----------1-----------|-2-----------3--6--|
E|-0-0-0-0-0-0---0-0-0-0-0-|-0-0-0-0-0-0-1--4--|

    PM------|   PM------|     PM------|
E|-------------------------|--------------------|
B|-------------------------|--------------------|
G|-------------------------|--------------------|
D|-------------3-----------|--------------------|
A|-2-----------1-----------|-2------------------|
E|-0-0-0-0-0-0---0-0-0-0-0-|-0-0-0-0-0-0-1-4-1--|

    PM------|   PM------|     PM------|
E|-------------------------|--------------------||
B|-------------------------|--------------------||
G|-------------------------|-------------9--10--||
D|-------------3-----------|-------------7---8--||
A|-2-----------1-----------|-2-----------7---8--||
E|-0-0-0-0-0-0---0-0-0-0-0-|-0-0-0-0-0-0-5---6--||

    PM--------|   PM--------|     PM--------|
E|-----------------------------|----------------------|
B|-----------------------------|----------------------|
G|-----------------------------|----------------------|
D|-----------------------------|----------------------|
A|-----------------------------|-------------------4--|
E|-1-1-1-1-1-1-1-2-1-1-1-1-1-1-|-3-1-1-1-1-1-1-4-1-2--|

    PM--------|   PM--------|     PM--------|
E|-----------------------------|----------------------|
B|-----------------------------|----------------------|
G|-----------------------------|----------------------|
D|-----------------------------|----------------------|
A|-----------------------------|-------------------4--|
E|-1-1-1-1-1-1-1-2-1-1-1-1-1-1-|-3-1-1-1-1-1-1-4-1-2--|

    PM--------|   PM--------|     PM--------|
E|-----------------------------|----------------------|
B|-----------------------------|----------------------|
G|-----------------------------|----------------------|
D|-----------------------------|----------------------|
A|-----------------------------|-------------------4--|
E|-1-1-1-1-1-1-1-2-1-1-1-1-1-1-|-3-1-1-1-1-1-1-4-1-2--|

    PM--------|   PM--------|     PM--------|
E|-----------------------------|----------------------||
B|-----------------------------|----------------------||
G|-----------------------------|----------------------||
D|-----------------------------|----------------------||
A|-----------------------------|-------------------4--||
E|-1-1-1-1-1-1-1-2-1-1-1-1-1-1-|-3-1-1-1-1-1-1-4-1-2--||

 Chorus
    PM------------------|       PM------------------|
E|---------------------------|---------------------------|
B|---------------------------|---------------------------|
G|---------------------------|---------------------------|
D|---------------------------|---------------------------|
A|-2-----------------------3-|-3-----------------------4-|
E|-0-0-0-0-0-0-0-0-0-0-0-0-1-|-1-0-0-0-0-0-0-0-0-0-0-0-2-|

    PM------------------------|
E|-------------------------------|-------------------|
B|-------------------------------|-------------------|
G|-------------------------------|-------------------|
D|-------------------------------|-------------------|
A|-4-----------------------------|-3-2-3-7-(7)--6----|
E|-2-0-0-0-0-0-0-0-0-0-0-0-0-0-0-|-1-0-1-5-(5)--4----|

    PM------------------|       PM------------------|
E|---------------------------|---------------------------|
B|---------------------------|---------------------------|
G|---------------------------|---------------------------|
D|---------------------------|---------------------------|
A|-2-----------------------3-|-3-----------------------4-|
E|-0-0-0-0-0-0-0-0-0-0-0-0-1-|-1-0-0-0-0-0-0-0-0-0-0-0-2-|

    PM------------------------|
E|-------------------------------|-------------------||
B|-------------------------------|-------------------||
G|-------------------------------|-------------------||
D|-------------------------------|-------------------||
A|-4-----------------------------|-3-2-3-7-(7)--6----||
E|-2-0-0-0-0-0-0-0-0-0-0-0-0-0-0-|-1-0-1-5-(5)--4----||

 Verse 2
    PM------|   PM------|     PM------|
E|-------------------------|--------------------|
B|-------------------------|--------------------|
G|-------------------------|--------------------|
D|-------------3-----------|--------------------|
A|-2-----------1-----------|-2------------------|
E|-0-0-0-0-0-0---0-0-0-0-0-|-0-0-0-0-0-0-1-4-1--|

    PM------|   PM------|     PM------|
E|-------------------------|-------------------|
B|-------------------------|-------------------|
G|-------------------------|-------------5--8--|
D|-------------3-----------|-------------3--6--|
A|-2-----------1-----------|-2-----------3--6--|
E|-0-0-0-0-0-0---0-0-0-0-0-|-0-0-0-0-0-0-1--4--|

    PM------|   PM------|     PM------|
E|-------------------------|--------------------|
B|-------------------------|--------------------|
G|-------------------------|--------------------|
D|-------------3-----------|--------------------|
A|-2-----------1-----------|-2------------------|
E|-0-0-0-0-0-0---0-0-0-0-0-|-0-0-0-0-0-0-1-4-1--|

    PM------|   PM------|     PM------|
E|-------------------------|--------------------|
B|-------------------------|--------------------|
G|-------------------------|-------------9--10--|
D|-------------3-----------|-------------7---8--|
A|-2-----------1-----------|-2-----------7---8--|
E|-0-0-0-0-0-0---0-0-0-0-0-|-0-0-0-0-0-0-5---6--|

    PM------|   PM------|     PM------|
E|-------------------------|--------------------|
B|-------------------------|--------------------|
G|-------------------------|--------------------|
D|-------------3-----------|--------------------|
A|-2-----------1-----------|-2------------------|
E|-0-0-0-0-0-0---0-0-0-0-0-|-0-0-0-0-0-0-1-4-1--|

    PM------|   PM------|     PM------|
E|-------------------------|-------------------|
B|-------------------------|-------------------|
G|-------------------------|-------------5--8--|
D|-------------3-----------|-------------3--6--|
A|-2-----------1-----------|-2-----------3--6--|
E|-0-0-0-0-0-0---0-0-0-0-0-|-0-0-0-0-0-0-1--4--|

    PM------|   PM------|     PM------|
E|-------------------------|--------------------|
B|-------------------------|--------------------|
G|-------------------------|--------------------|
D|-------------3-----------|--------------------|
A|-2-----------1-----------|-2------------------|
E|-0-0-0-0-0-0---0-0-0-0-0-|-0-0-0-0-0-0-1-4-1--|

    PM------|   PM------|     PM------|
E|-------------------------|--------------------||
B|-------------------------|--------------------||
G|-------------------------|-------------9--10--||
D|-------------3-----------|-------------7---8--||
A|-2-----------1-----------|-2-----------7---8--||
E|-0-0-0-0-0-0---0-0-0-0-0-|-0-0-0-0-0-0-5---6--||

 Chorus
    PM------------------|       PM------------------|
E|---------------------------|---------------------------|
B|---------------------------|---------------------------|
G|---------------------------|---------------------------|
D|---------------------------|---------------------------|
A|-2-----------------------3-|-3-----------------------4-|
E|-0-0-0-0-0-0-0-0-0-0-0-0-1-|-1-0-0-0-0-0-0-0-0-0-0-0-2-|

    PM------------------------|
E|-------------------------------|-------------------|
B|-------------------------------|-------------------|
G|-------------------------------|-------------------|
D|-------------------------------|-------------------|
A|-4-----------------------------|-3-2-3-7-(7)--6----|
E|-2-0-0-0-0-0-0-0-0-0-0-0-0-0-0-|-1-0-1-5-(5)--4----|

    PM------------------|       PM------------------|
E|---------------------------|---------------------------|
B|---------------------------|---------------------------|
G|---------------------------|---------------------------|
D|---------------------------|---------------------------|
A|-2-----------------------3-|-3-----------------------4-|
E|-0-0-0-0-0-0-0-0-0-0-0-0-1-|-1-0-0-0-0-0-0-0-0-0-0-0-2-|

    PM------------------------|
E|-------------------------------|-------------------|
B|-------------------------------|-------------------|
G|-------------------------------|-------------------|
D|-------------------------------|-------------------|
A|-4-----------------------------|-3-2-3-7-(7)--6----|
E|-2-0-0-0-0-0-0-0-0-0-0-0-0-0-0-|-1-0-1-5-(5)--4----|

    PM------------------|         PM------------------|
E|----------------------------|-----------------------------|
B|----------------------------|-----------------------------|
G|----------------------------|-----------------------------|
D|-9-----------------------10-|-10-----------------------11-|
A|-7------------------------8-|--8------------------------9-|
E|---0-0-0-0-0-0-0-0-0-0-0----|----0-0-0-0-0-0-0-0-0-0-0----|

                                                          Gtr I
     PM------------------------|
E|--------------------------------|----------------------|------||
B|--------------------------------|----------------------|------||
G|--------------------------------|----------------------|------||
D|-11-----------------------------|-10-9-10-14-(14)--13--|-3----||
A|--9-----------------------------|--8-7--8-12-(12)--11--|-3----||
E|----0-0-0-0-0-0-0-0-0-0-0-0-0-0-|----------------------|-1----||

 Interlude
        PM--------|         PM      PM
E|-------------------|-----------------------|
B|-------------------|-----------------------|
G|-------------------|-----------------------|
D|-------------------|-----------------------|
A|-7h8p7-------------|-6h7p6---5h6p5---4h5p4-|
E|-------0-0-0-0-0-0-|-------0-------0-------|

        PM|
E|-------------------|------------------|
B|-------------------|------------------|
G|-------------------|------------------|
D|---------------6-5-|-------7------9-8-|
A|-7h8p7-------7-----|-6-7-8-----10-----|
E|-------0-0-6-------|---------9--------|

  Gtr I
        PM--------|         PM      PM
E|-------------------|-----------------------|
B|-------------------|-----------------------|
G|-------------------|-----------------------|
D|-------------------|-----------------------|
A|-7h8p7-------------|-6h7p6---5h6p5---4h5p4-|
E|-------0-0-0-0-0-0-|-------0-------0-------|
|
| Gtr II
E|-------------------|-----------------------|
B|-------------------|-----------------------|
G|-------------------|-----------------------|
D|-------------------|-----------------------|
A|-------------------|-----------------------|
E|-------------------|-----------------------|

        PM|
E|-------------------|----------------------||
B|-------------------|----------------------||
G|-------------------|----------------------||
D|---------------6-5-|--------7--------9-8--||
A|-7h8p7-------7-----|-6-7--8------10-------||
E|-------0-0-6-------|-----------9----------||
|
E|-------------------|----------------------||
B|-------------------|----------------------||
G|---------------8-7-|--------9-------10-9--||
D|-------------9-----|-8-9-10------11-------||
A|-----------8-------|----------10----------||
E|-------------------|----------------------||

          PM--------|         PM      PM
E|--------------------|-----------------------|
B||o-------------------|-----------------------|
G|--------------------|-----------------------|
D|--------------------|-----------------------|
A||o-7h8p7-------------|-6h7p6---5h6p5---4h5p4-|
E|--------0-0-0-0-0-0-|-------0-------0-------|
|
|         PM--------|         PM      PM
E|--------------------|-----------------------|
B||o-------------------|-----------------------|
G|--------------------|-----------------------|
D|--------------------|-----------------------|
A||o-7h8p7-------------|-6h7p6---5h6p5---4h5p4-|
E|--------0-0-0-0-0-0-|-------0-------0-------|

        PM|
                                           3x
E|-------------------|----------------------||
B|-------------------|---------------------o||
G|-------------------|----------------------||
D|---------------6-5-|--------7--------9-8--||
A|-7h8p7-------7-----|-6-7--8------10------o||
E|-------0-0-6-------|-----------9----------||
|
|       PM|
|                                          3x
E|-------------------|----------------------||
B|-------------------|---------------------o||
G|---------------8-7-|--------9-------10-9--||
D|-------------9-----|-8-9-10------11-------||
A|-7h8p7-----8-------|----------10---------o||
E|-------0-0---------|----------------------||

  Gtrs I, II
        PM--------|         PM      PM
E|-------------------|-----------------------||
B|-------------------|-----------------------||
G|-------------------|-----------------------||
D|-------------------|-----------------------||
A|-7h8p7-------------|-6h7p6---5h6p5---4h5p4-||
E|-------0-0-0-0-0-0-|-------0-------0-------||

 Verse3 & 4
            PM------|     PM|                  PM--------------------|
E|-----------------|----------------|-----------------|-----------------|
B|-----------------|----------------|-----------------|-----------------|
G|-----------------|----------------|-----------------|-----------------|
D|-----------------|-----------2-3--|-----------------|-----------------|
A|-2-2-2-3-2-------|---2-3-----0-1--|-2-2-2-3-2-------|-----------------|
E|-0-0-0-1-0-0-0-0-|-0-0-1-0-0------|-0-0-0-1-0-0-0-0-|-0-0-0-0-0-0-0-0-|

            PM------|     PM|                  PM--------------------|
E|-----------------|----------------|-----------------|-----------------|
B|-----------------|----------------|-----------------|-----------------|
G|-----------------|----------------|-----------------|-----------------|
D|-----------------|-----------2-3--|-----------------|-----------------|
A|-2-2-2-3-2-------|---2-3-----0-1--|-2-2-2-3-2-------|-----------------|
E|-0-0-0-1-0-0-0-0-|-0-0-1-0-0------|-0-0-0-1-0-0-0-0-|-0-0-0-0-0-0-0-0-|

            PM------|     PM|                  PM--------------------|
E|-----------------|----------------|-----------------|-----------------|
B|-----------------|----------------|-----------------|-----------------|
G|-----------------|----------------|-----------------|-----------------|
D|-----------------|-----------2-3--|-----------------|-----------------|
A|-2-2-2-3-2-------|---2-3-----0-1--|-2-2-2-3-2-------|-----------------|
E|-0-0-0-1-0-0-0-0-|-0-0-1-0-0------|-0-0-0-1-0-0-0-0-|-0-0-0-0-0-0-0-0-|

            PM------|     PM|                  PM--|
E|-----------------|----------------|-----------------|
B|-----------------|----------------|-----------------|
G|-----------------|----------------|-----------------|
D|-----------------|-----------2-3--|-----------------|
A|-2-2-2-3-2-------|---2-3-----0-1--|-2-2-2-3-2-------|
E|-0-0-0-1-0-0-0-0-|-0-0-1-0-0------|-0-0-0-1-0-0-0-0-|

  Gtr I
                      PM------------------------------|             PM--|
E|-------------------|-----------------|-----------------|-----------------|
B|-------------------|-----------------|-----------------|-----------------|
G|-------------------|-----------------|-----------------|-----------------|
D|-6--------3---4----|-----------------|-----------------|-----------------|
A|----5-7-----4---5\-|-3-3-3-3-3-3-3-3-|-6-6-6-6-5-5-5-5-|-2-2-2-3-2-------|
E|--------6----------|-1-1-1-1-1-1-1-1-|-4-4-4-4-3-3-3-3-|-0-0-0-1-0-0-0-0-|
|
| Gtr II
|                     PM------------|                               PM--|
E|-------------------|-----------------|-----------------|-----------------|
B|-------------------|-----------------|-----------------|-----------------|
G|-9--------6---5----|-----------------|-----------------|-----------------|
D|---10-8-----7---7\-|-----------------|-----------------|-----------------|
A|--------9----------|-3-3-3-3-3-3-3-3-|-6-------5-------|-2-2-2-3-2-------|
E|-------------------|-1-1-1-1-1-1-1-1-|-4-------3-----0-|-0-0-0-1-0-0-0-0-|

                      PM----|           PM----|
E|-------------------|-----------------|--------------||
B|-------------------|-----------------|--------------||
G|-------------------|-----------------|--------------||
D|-6--------3---4----|-----------------|--------------||
A|----5-7-----5---5\-|-3-3-3-3-3-------|-6-6-6-6-5----||
E|--------6----------|-1-1-1-1-1-------|-4-4-4-4-3----||
|
|                     PM------------|
E|-------------------|-----------------|--------------||
B|-------------------|-----------------|--------------||
G|-9--------6---7----|-----------------|--------------||
D|---10-8-----8---8\-|-----------------|--------------||
A|--------9----------|-3-3-3-3-3-3-3-3-|-6-------5----||
E|-------------------|-1-1-1-1-1-1-1-1-|-4-------3----||

                                                        1.
    Gtrs I, II
              PM------|     PM|                  PM--------------------|
E|------------------|----------------|-----------------|-------------------||
B||o-----------------|----------------|-----------------|------------------o||
G|------------------|----------------|-----------------|-------------------||
D|------------------|-----------2-3--|-----------------|-------------------||
A||o-2-2-2-3-2-------|---2-3-----0-1--|-2-2-2-3-2-------|------------------o||
E|--0-0-0-1-0-0-0-0-|-0-0-1-0-0------|-0-0-0-1-0-0-0-0-|-0-0-0-0-0-0-0-0---||

  2.
    D.S. al Coda
E|--------------------||
B|--------------------||
G|----------10-9-14\--||
D|-----10-9-----------||
A|-8-7----------------||
E|--------------------||

  Gtr I
                      PM----|
E|-------------------|--------------|---------------|
B|-------------------|--------------|---------------|
G|-------------------|--------------|---------------|
D|-6--------3---4----|--------------|---------------|
A|----7-5-----5---5\-|-3-3-3-3-3----|-6-------5-----|
E|--------6----------|-1-1-1-1-1----|-4-------3---0-|
|
| Gtr II
|                     PM----|        PM----|
E|-------------------|--------------|---------------|
B|-------------------|--------------|---------------|
G|-9--------6---7----|--------------|---------------|
D|---10-8-----8---8\-|--------------|---------------|
A|--------9----------|-3-3-3-3-3----|-6-6-6-6-5-----|
E|-------------------|-1-1-1-1-1----|-4-4-4-4-3-----|

            PM--|                ~        PM--|   PM-----|
E|-----------------|-------------------|--------------------|-----------||
B|-----------------|-------------------|--------------------|-----------||
G|-----------------|-------------------|--------------------|-----------||
D|-----------------|-6--------3---4----|--------------------|-6----5----||
A|-2-2-2-3-2-------|----7-5-----5------|-3-------3----------|-4----3----||
E|-0-0-0-1-0-0-0-0-|--------6----------|-1-1-1-1-1-1--1---1-|-4----3----||
|
|           PM--|
E|-----------------|-------------------|--------------------|-----------||
B|-----------------|-------------------|--------------------|-----------||
G|-----------------|-9--------6---7----|-5-------5---(5)\---|-8----7----||
D|-----------------|---10-8-----8---8\-|-3-------3---(3)\---|-6----5----||
A|-2-2-2-3-2-------|--------9----------|--------------------|-----------||
E|-0-0-0-1-0-0-0-0-|-------------------|--------------------|-----------||

  Gtrs I, II
        PM--------|         PM    PM
E|-------------------|---------------------|
B|-------------------|---------------------|
G|-------------------|---------------------|
D|-------------------|---------5-----------|
A|-7h8p7-------------|-6h7p6-----6---4h5p4-|
E|-------0-0-0-0-0-0-|-------0-----0-------|

        PM|
E|-------------------|---------------------|
B|-------------------|---------------------|
G|---------------8-7-|--------9-------10-9-|
D|-------------9-6-5-|-8-9-10-7----11--9-8-|
A|-7h8p7-----8-7-----|-6-7--8---10-10------|
E|-------0-0-6-------|-----------9---------|

        PM--------|         PM      PM
E|-------------------|-----------------------|
B|-------------------|-----------------------|
G|-------------------|-----------------------|
D|-------------------|-----------------------|
A|-7h8p7-------------|-6h7p6---5h6p5---4h5p4-|
E|-------0-0-0-0-0-0-|-------0-------0-------|

        PM|
E|-------------------|----------------------|
B|-------------------|----------------------|
G|---------------8-7-|--------9-------10-9--|
D|-------------9-6-5-|-8-9-10-7----11--9-8--|
A|-7h8p7-----8-7-----|-6-7--8---10-10-------|
E|-------0-0-6-------|-----------9----------|

        PM--------|         PM      PM
E|-------------------|-----------------------|
B|-------------------|-----------------------|
G|-------------------|-----------------------|
D|-------------------|-----------------------|
A|-7h8p7-------------|-6h7p6---5h6p5---4h5p4-|
E|-------0-0-0-0-0-0-|-------0-------0-------|

        PM|
E|-------------------|----------------------|
B|-------------------|----------------------|
G|---------------8-7-|--------9-------10-9--|
D|-------------9-6-5-|-8-9-10-7----10--9----|
A|-7h8p7-----8-7-----|-6-7--8---10-------7--|
E|-------0-0-6-------|-----------9----------|

        PM--------|         PM      PM
E|-------------------|-----------------------|-----------||
B|-------------------|-----------------------|-----------||
G|-------------------|-----------------------|-----------||
D|-------------------|-----------------------|-10--------||
A|-7h8p7-------------|-6h7p6---5h6p5---4h5p4-|--8--------||
E|-------0-0-0-0-0-0-|-------0-------0-------|-----------||

 Guitar Solo
  Gtr III
             ~~~~~~~~~~~
E|-21b24-----21b24--(21)----21-18h21p|
B|-----------------------------------|
G|-----------------------------------|
D|-----------------------------------|
A|-----------------------------------|
E|-----------------------------------|

                                           F5
E|-18----18h21-18h21-18h21b24==(21)r===(21)-18h21p=|
B|----21-------------------------------------------|
G|-------------------------------------------------|
D|-------------------------------------------------|
A|-------------------------------------------------|
E|-------------------------------------------------|

                                          A5
E|-18-----------------------------------------|
B|----21-18-19-18h19p18-----------------------|
G|----------------------20-17h18h20--18p17----|
D|-----------------------------------------20-|
A|--------------------------------------------|
E|--------------------------------------------|

                              Gb5
E|-------------------------------------|
B|-------------------------------------|
G|-------------------------------------|
D|-17-18-20--17-20-17-17-(17)--(17)\---|
A|-------------------------------------|
E|-------------------------------------|

  Eb5                                  A5
E|--------------------------------------------|
B|--------------------------------------------|
G|--------------------------------------------|
D|-----------------------------12h14p12-12-14-|
A|----------12h13h15-12h13h14-----------------|
E|-12h13h15-----------------------------------|

                                          F5
E|-----------------------------------12h13-12-|
B|----------------12h13p12h15p12-15-----------|
G|-12-12-14p12-14-----------------------------|
D|--------------------------------------------|
A|--------------------------------------------|
E|--------------------------------------------|

                                               A5

E|-15p13p12-------------------------------------------|
B|----------15p13p12h13p12----------------------------|
G|-------------------------14-11h12-14-14-12p11-14-12-|
D|----------------------------------------------------|
A|----------------------------------------------------|
E|----------------------------------------------------|

                               Gb5
                      \6
E|--------------------------------------|
B|--------------------------------------|
G|-[11]b12==([11])r=([11])------(11)\-5-|
D|--------------------------------------|
A|--------------------------------------|
E|--------------------------------------|

  Eb5               A5                                         F5
E|-------------------------|--------------------------------------|
B|-------------------------|--------------------------------------|
G|-(5)-----------4p2---2b3-|-(2)-x-5-x-5-x--3-x-5--x-0------------|
D|-------------------5-----|---------------------------3p2--5p3p2-|
A|-------------------------|--------------------------------------|
E|-------------------------|--------------------------------------|

                         A5                  Gb5
                                   \3.5
E|-------------------------|------------------------|
B|-------------------------|------------------------|
G|-------------------------|------------------------|
D|-------------------------|------------------------|
A|-5p3p2--5p3p2--2b3=======|=(2)r==(2)--------(x)/--|
E|-------------------------|------------------------|

  Eb5                               A5
E|--------------------------------------|
B|--------------------------------------|
G|--------------------------------------|
D|----11---------12---------13s12----18-|
A|-------12-(12)----13s=14--------14----|
E|-12-----------------------------------|

                                                F5
E|-------------------------------------------------------|
B|--------------------------------------15h16h18-15h16h==|
G|------------------------18--15h=16h18------------------|
D|-15h16h18-15h16h=18-15---------------------------------|
A|-------------------------------------------------------|
E|-------------------------------------------------------|

                                               A5
E|----15-16p15-18p15-16p15-19\---------------------------|
B|-18---------------------------15-16--16-15-15-17p15----|
G|----------------------------------------------------15-|
D|-------------------------------------------------------|
A|-------------------------------------------------------|
E|-------------------------------------------------------|

                      Gb5
E|-----------------------||
B|---------0----(0)------||
G|-17b18p==0----(0)------||
D|-----------------------||
A|-----------------------||
E|------------------x\---||

  Gtrs I, II
      PM--------|     PM--------------|       PM--------------|
E|---------------------------------------|--------------------------------|
B|---------------------------------------|--------------------------------|
G|---------------------------------------|--------------------------------|
D|---------------------------------------|--------------------------------|
A|---------------------------------------|-----------------------------4--|
E|-1---1-1-1-1-1-1-2---1---1-1---1-1---1-|-3---1---1-1---1-1---1-4---1-2--|
|
| Gtr III
|                 \2/ \2/   \2/   \2/     \2/ \2/   \2/   \2/   \2/   /
|                                                               ~~~
E|---------------------------------------|--------------------------------|
B|---------------------------------------|--------------------------------|
G|-5p0-5p0-5p0-----3---3-----0-----0-----|-3---3-----0-----3p==0-3-----5--|
D|---------------------------------------|--------------------------------|
A|---------------------------------------|--------------------------------|
E|---------------------------------------|--------------------------------|

      PM--------|        PM--------|           PM--------|
E|------------------------------------|-----------------------------------|
B|------------------------------------|-----------------------------------|
G|------------------------------------|-----------------------------------|
D|------------------------------------|-----------------------------------|
A|------------------------------------|--------------------------4--------|
E|--1--1-1-1-1-1-1------2-1-1-1-1-1-1-|-------3-1-1-1-1-1-1-4-1--2--------|
|
|                                                                  \0.5/
|  ~~~~~~~~~~~~~~~~~~~~~~~~~~~~~~~~~~~~~~~~~~~~
E|------------------------------------|-----------------------------------|
B|------------------------------------|-----------------------------------|
G|-(5)-------------(5)s10-------------|-(10)s20--------------------22-----|
D|------------------------------------|-----------------------------------|
A|------------------------------------|-------------------------20--------|
E|------------------------------------|-----------------------------------|

         PM--------|        PM---------|
E|------------------------------------------|
B|------------------------------------------|
G|------------------------------------------|
D|------------------------------------------|
A|------------------------------------------|
E|--1-----1-1-1-1-1-1---2----1--1-1-1-1-1---|
|
|  \0.5/
E|------------------------------------------|
B|-22b24==============(22)r(22)-------------|
G|------------------------------------------|
D|------------------------------------------|
A|------------------------------------------|
E|------------------------------------------|

         PM--------|                           PM-----------|         PM-----------|
E|-------------------------------------|----------------------------------------------|
B|-------------------------------------|----------------------------------------------|
G|-------------------------------------|----------------------------------------------|
D|-------------------------------------|----------------------------------------------|
A|-----------------------------4-------|----------------------------------------------|
E|--3-----1-1-1-1-1-1---4---1--2-------|--1-----1--1--1-1--1--1--2-----1--1--1-1--1-1-|
|
|  ~~~~~~
E|-------------------------------------|-19-19-22-22-19-------------------------------|
B|-22b24==============(22)\---19-22-22-|------------------22-20-20-19-19--------------|
G|-------------------------------------|---------------------------------21-21---19---|
D|-------------------------------------|----------------------------------------------|
A|-------------------------------------|----------------------------------------------|
E|-------------------------------------|----------------------------------------------|

        PM--------------|
E|-----------------------------------------||
B|-----------------------------------------||
G|-----------------------------------------||
D|-----------------------------------------||
A|------------------------------------4----||
E|--3----1----1--1--1--1--1--4--1-----2----||
|
E|-----------------------------------------||
B|-----------------------------------------||
G|----19---19------------------------------||
D|-21-----------21-19-19-19----------------||
A|--------------------------22-21h22-------||
E|-----------------------------------19\---||

         PM------------|         PM-----------|
E|------------------------------------------------|
B|------------------------------------------------|
G|------------------------------------------------|
D|------------------------------------------------|
A|------------------------------------------------|
E|--4-----4--4--4--4--4--4--5-----4--4--4-4--4--4-|
|
E|-13p12-15p13p12-------12-12-12-13p12---------12-|
B|----------------15p12----------------15---12----|
G|------------------------------------------------|
D|------------------------------------------------|
A|------------------------------------------------|
E|------------------------------------------------|

            PM----------------|
E|---------------------------------------------------|
B|---------------------------------------------------|
G|---------------------------------------------------|
D|------------------------------------------7--------|
A|------------------------------------------5--------|
E|--6--------4----4-----4-4--4--4--7--4--------------|
|
E|-15p13p12-15p13p==12-15----------------------------|
B|--------------------------15p12-15-12h13p12--------|
G|--------------------------------------------14-x-x-|
D|---------------------------------------------------|
A|---------------------------------------------------|
E|---------------------------------------------------|

      PM----------|        PM-----------|
E|---------------------------------------------|
B|---------------------------------------------|
G|---------------------------------------------|
D|---------------------------------------------|
A|---------------------------------------------|
E|-4---4-4-4--4--4-4--5-----4--4--4--4-4--4----|
|
E|---------------------------------------------|
B|---------------------------------------------|
G|-x-x-x-x-x-11-14---12p11---------------------|
D|-------------------------14p12p11-14p==12p11-|
A|---------------------------------------------|
E|---------------------------------------------|

      PM-----------|
E|------------------------------------------|
B|------------------------------------------|
G|------------------------------------------|
D|-----------------------------7------------|
A|-----------------------------5------------|
E|--6--4--4--4--4-4-4---7--4----------------|
|
|              ~~~~~~~~~~~~~~~~~~ PM---|
E|------------------------------------------|
B|------------------------------------------|
G|------------------------------------------|
D|-14p12p11---------------------------------|
A|----------14-12-----(12)---(12)-----------|
E|--------------------------------12-12-12--|

      PM-------------|              PM----------|
E|--------------------------------------------------|
B|--------------------------------------------------|
G|--------------------------------------------------|
D|--------------------------------------------------|
A|--------------------------------------------------|
E|--4--4-4--4-4--4----4-----5--------4-4--4-4--4--4-|
|
|  PM
E|--------------------------------------------------|
B|--------------------------------------------------|
G|--------------------------------------------------|
D|-------------------------13h14h16-17-----------14-|
A|----12---16---13h14h==16---------------14---17----|
E|-12-----------------------------------------------|

            PM------------|
E|-----------------------------------------------------|
B|-----------------------------------------------------|
G|-----------------------------------------------------|
D|------------------------------------------------7----|
A|------------------------------------------------5----|
E|--6--------4--4--4--4--4--4--7-------4---------------|
|
E|-----------------------------------------------------|
B|---------------------------------------17b21==(17)---|
G|-------------------------16-16-14b15-----------------|
D|-14h15h17-14-14-17-15-14-----------------------------|
A|-----------------------------------------------------|
E|-----------------------------------------------------|

       PM--------------|    PM--------------|
E|----------------------------------------------|
B|----------------------------------------------|
G|----------------------------------------------|
D|----------------------------------------------|
A|----------------------------------------------|
E|---4--4-4---4--4---4--4-5--4----4---4--4-4--4-|
|
|                           \2.5
E|----------------------------------------------|
B|-(17)-----(17)r==(17)-----20------(20)p====16-|
G|----------------------------------------------|
D|----------------------------------------------|
A|----------------------------------------------|
E|----------------------------------------------|

        PM----------------|
E|------------------------------------------||
B|------------------------------------------||
G|------------------------------------------||
D|--------------------------------------7---||
A|--------------------------------------5---||
E|--6----4-4---4--4--4-----4---7---4--------||
|
|                   \2.5/         \0.5
E|------------------------------------------||
B|-20p16-----(16)---16-------(16)-----------||
G|------------------------------------------||
D|--------------------------------18--------||
A|------------------------------------------||
E|------------------------------------------||

         PM------------|            PM------------|
E|----------------------------------------------------|
B|----------------------------------------------------|
G|----------------------------------------------------|
D|----------------------------------------------------|
A|----------------------------------------------------|
E|--1-----1--1--1--1--1--1--2--------1--1--1--1--1--1-|
|
E|-24-24-21-19-21-21-19-22-22-21h22-24-24-21-21-22-21-|
B|----------------------------------------------------|
G|----------------------------------------------------|
D|----------------------------------------------------|
A|----------------------------------------------------|
E|----------------------------------------------------|

         PM-----------|
E|----------------------------------------------|
B|----------------------------------------------|
G|----------------------------------------------|
D|----------------------------------------------|
A|----------------------------------4-----------|
E|--3-----1-1--1--1--1--1--4-----1--2-----------|
|
E|-19-19----------------------------------------|
B|-------22---21-19-19-17-17-17-----------------|
G|------------------------------19-18-19-18-18--|
D|----------------------------------------------|
A|----------------------------------------------|
E|----------------------------------------------|

         PM-----------|      PM-----------|         PM-------------|
E|--------------------------------------------|-------------------------------||
B|--------------------------------------------|-------------------------------||
G|--------------------------------------------|-------------------------------||
D|--------------------------------------------|-------------------------------||
A|--------------------------------------------|----------------------------4--||
E|--1-----1--1--1-1--1--1--2--1--1--1-1--1--1-|---3--1--1---1--1-1--1-4--1-2--||
|
E|--------------------------------------------|-------------------------------||
B|--------------------------------------------|-------------------------------||
G|-16-16-16-16---------------16-16------------|-------------------------------||
D|-------------19---19-19-18-------18---17-17-|-/20---------------------------||
A|--------------------------------------------|--------17-(17)--------x\---0--||
E|--------------------------------------------|-----18-----------x\---x\---0--||

      PM--------|   PM----------|         PM--------|
E|---------------------------------|----------------------------------|
B|---------------------------------|----------------------------------|
G|---------------------------------|----------------------------------|
D|---------------------------------|---------------------------7------|
A|---------------------------------|---------------------------5------|
E|--4--4-4-4-4-4-4-5-4-4--4--4-4-4-|---6---4-4-4-4-4-4---7---4--------|
|
|  \2                    \1           \2/                   /
|  ~~~                                ~~~~~                       ~~~~
E|-24--------------------24--------|-(24)--------------(24)-----------|
B|---------------------------------|----------------------------------|
G|---------------------------------|----------------------------------|
D|---------------------------------|------------------------18---(18)-|
A|---------------------------------|------------------------19---(19)-|
E|---------------------------------|----------------------------------|

       PM--------|      PM-----------|        PM------------|
E|--------------------------------------|-------------------------------|
B|--------------------------------------|-------------------------------|
G|--------------------------------------|-------------------------------|
D|--------------------------------------|--------------------------7----|
A|--------------------------------------|--------------------------5----|
E|---4--4-4-4-4-4-4---5--4-4----4-4-4-4-|---6--4-4---4---4-4-4-7-4------|
|
|   \2                    \2/                       \1__________________
E|--------------------------------------|-------------------------------|
B|-----------------------------21-------|-(21)-----(21)-----------------|
G|-------------------------0------------|-------------------------------|
D|-(18)-------------(18)----------------|-------------------------------|
A|-(19)-------------(19)----------------|-------------------------------|
E|--------------------------------------|-------------------------------|

        PM--------|   PM--------|         PM--------|
E|---------------------------------|--------------------------|
B|---------------------------------|--------------------------|
G|---------------------------------|--------------------------|
D|---------------------------------|--------------------------|
A|---------------------------------|-----------------------4--|
E|---1---1-1-1-1-1-1-2-1-1-1-1-1-1-|---3---1-1-1-1-1-1-4-1-2--|
|
|   \2________________________________\3______________________
E|---------------------------------|--------------------------|
B|-(21)----------------------------|-(21)---------------------|
G|---------------------------------|--------------------------|
D|---------------------------------|--------------------------|
A|---------------------------------|--------------------------|
E|---------------------------------|--------------------------|

        PM--------|   PM--------|         PM--------|
E|---------------------------------|--------------------------|
B|---------------------------------|--------------------------|
G|---------------------------------|--------------------------|
D|---------------------------------|--------------------------|
A|---------------------------------|-----------------------4--|
E|---1---1-1-1-1-1-1-2-1-1-1-1-1-1-|---3---1-1-1-1-1-1-4-1-2--|
|
|   \5________________________________\7______________________
E|---------------------------------|--------------------------|
B|-(21)----------------------------|-(21)---------------------|
G|---------------------------------|--------------------------|
D|---------------------------------|--------------------------|
A|---------------------------------|--------------------------|
E|---------------------------------|--------------------------|

  Gtrs I, II
    PM--------|   PM--------|     PM--------|
E|-----------------------------|----------------------|
B|-----------------------------|----------------------|
G|-----------------------------|----------------------|
D|-----------------------------|----------------------|
A|-----------------------------|-------------------4--|
E|-1-1-1-1-1-1-1-2-1-1-1-1-1-1-|-3-1-1-1-1-1-1-4-1-2--|

    PM--------|   PM--------|
E|------------------------------||
B|------------------------------||
G|------------------------------||
D|------------------------------||
A|------------------------------||
E|-1-1-1-1-1-1-1-2-1-1-1-1-1-1--||

E|----------|---------|-----||
B|----------|---------|-----||
G|----------|---------|-----||
D|----------|---------|-----||
A|-2--------|---------|-----||
E|-0--------|---------|-----||

 Out-Chorus
  Q=210
    PM------------------|       PM------------------|
E|---------------------------|---------------------------|
B|---------------------------|---------------------------|
G|---------------------------|---------------------------|
D|---------------------------|---------------------------|
A|-2-----------------------3-|-3-----------------------4-|
E|-0-0-0-0-0-0-0-0-0-0-0-0-1-|-1-0-0-0-0-0-0-0-0-0-0-0-2-|

    PM------------------------|
E|-------------------------------|-----------------|
B|-------------------------------|-----------------|
G|-------------------------------|-----------------|
D|-------------------------------|-----------------|
A|-4-----------------------------|-------7-(7)--6--|
E|-2-0-0-0-0-0-0-0-0-0-0-0-0-0-0-|-1-0-1-5-(5)--4--|

    PM------------------|       PM------------------|
E|---------------------------|---------------------------|
B|---------------------------|---------------------------|
G|---------------------------|---------------------------|
D|---------------------------|---------------------------|
A|-2-----------------------3-|-3-----------------------4-|
E|-0-0-0-0-0-0-0-0-0-0-0-0-1-|-1-0-0-0-0-0-0-0-0-0-0-0-2-|

    PM------------------------|
E|-------------------------------|-------------------|
B|-------------------------------|-------------------|
G|-------------------------------|-------------------|
D|-------------------------------|-------------------|
A|-4-----------------------------|-------7-(7)--6----|
E|-2-0-0-0-0-0-0-0-0-0-0-0-0-0-0-|-1-0-1-5-(5)--4----|

    PM------------------|       PM------------------|
E|---------------------------|---------------------------|
B|---------------------------|---------------------------|
G|---------------------------|---------------------------|
D|---------------------------|---------------------------|
A|-2-----------------------3-|-3-----------------------4-|
E|-0-0-0-0-0-0-0-0-0-0-0-0-1-|-1-0-0-0-0-0-0-0-0-0-0-0-2-|

    PM------------------------|
E|-------------------------------|-------------------|
B|-------------------------------|-------------------|
G|-------------------------------|-------------------|
D|-------------------------------|-------------------|
A|-4-----------------------------|-------7-(7)--6----|
E|-2-0-0-0-0-0-0-0-0-0-0-0-0-0-0-|-1-0-1-5-(5)--4----|

  Gtr I
    PM------------------|         PM------------------|
E|----------------------------|-----------------------------|
B|----------------------------|-----------------------------|
G|----------------------------|-----------------------------|
D|----------------------------|-----------------------------|
A|-2------------------------3-|--3------------------------4-|
E|-0-0-0-0-0-0-0-0-0-0-0-0--1-|--1-0-0-0-0-0-0-0-0-0-0-0--2-|
|
| Gtr II
|   PM------------------|         PM------------------|
E|----------------------------|-----------------------------|
B|----------------------------|-----------------------------|
G|----------------------------|-----------------------------|
D|-9-----------------------10-|-10-----------------------11-|
A|-7------------------------8-|--8------------------------9-|
E|---0-0-0-0-0-0-0-0-0-0-0----|----0-0-0-0-0-0-0-0-0-0-0----|

     PM------------------------|
E|--------------------------------|------------------------|
B|--------------------------------|------------------------|
G|--------------------------------|------------------------|
D|--------------------------------|------------------------|
A|--4-----------------------------|----------7--(7)---6----|
E|--2-0-0-0-0-0-0-0-0-0-0-0-0-0-0-|--1-0--1--5--(5)---4----|
|
|    PM------------------------|
E|--------------------------------|------------------------|
B|--------------------------------|------------------------|
G|--------------------------------|------------------------|
D|-11-----------------------------|-10-9-10-14-(14)--13----|
A|--9-----------------------------|--8-7--8-12-(12)--11----|
E|----0-0-0-0-0-0-0-0-0-0-0-0-0-0-|------------------------|

  E5
  Gtr II

  Gtr I
E|-----------|--------------*|
B|-----------|--------------*|
G|-----------|--------------*|
D|-3-------9-|-9--(9)\------*|
A|-1-------7-|-7--(7)\------*|
E|-1---------|--------------*|
Composição de Jeff Hanneman
56.822 exibições
    • ½ Tom
    • A
    • Bb
    • B
    • C
    • Db
    • D
    • Eb
    • E
    • F
    • F#
    • G
    • Ab
  • Adicionar à lista

    0 comentários

    Ver todos os comentários

    Conseguiu tocar?

    10 Tocaram 0 Ainda não

    Grave um vídeo tocando Angel Of Death e nos envie!

    00:00 / 00:00
    Outros vídeos desta música
    Repetir Qualidade Automático
    Outros vídeos desta música
    00:00 / 00:00
    Automático

    Cifra Club Pro

    Aproveite o Cifra Club com benefícios exclusivos e sem anúncios
    Cifra Club Pro
    Aproveite o Cifra Club com benefícios exclusivos e sem anúncios
    OK