Cifra Club

Snuff

Slipknot

Tab de baixo: Principal
exibições 13.180
(intro/verse 6x)
G|------------------------------------------------------------------------|
D|------------------------------------------------------------------------|
A|------------5~-------4--------------------------------------------------|
E|-2~-------4-------------------------------------------------------------|

(pre-chorus 2x)
G|-----------------------|------------------------------------------------|
D|-----------------------|------------------------------------------------|
A|------------5-5-555-44-|------------5-5-555-55--------------------------|
E|-2-2-222-44------------|-2-2-222-44-------------------------------------|

(chorus 1) ("If you love me")
                       3x
G|-----------------------|------------------------------------------------|
D|-----------------------|------------------------------------------------|
A|-----------------------|--------------------5555555---------------------|
E|-0-0-000-00-2-2-222-22-|-0-0-000-00-5555555-----------------------------|

(pre-verse 2x)
G|------------------------------------------------------------------------|
D|------------------------------------------------------------------------|
A|------------5-5-555-44--------------------------------------------------|
E|-2-2-222-44-------------------------------------------------------------|

(verse 2)
                       3x
G|-----------------------|------------------------------------------------|
D|-----------------------|------------------------------------------------|
A|------------5~-------4-|------------5~----------------------------------|
E|-2~-------4------------|-2~-------4-------------------------------------|

(chorus 2) ("So save your breath")
G|-----------------------------------|-----------------------------------|
D|-----------------------------------|-----------------------------------|
A|-----------------------------------|-----------------------------------|
E|-0--0--4540-0000-2--h4h2h442-222/4-|-0--0--2420-0000-2--h4h2h42222222\-|

G|-----------------------------------|-------------------------------------|
D|-----------------------------------|-------------------------------------|
A|----------------------------445542-|-----------------5555555/------------|
E|-0--0--4540-0000-2--2444555--------|-0--0--4540-0000----------9999101097-|

(pre-chorus 2)
                                  3x
G|----------------------------------|-------------------------------------|
D|-----------------------76---------|---------------------0-00000000------|
A|-----------------5-555----5-55540-|-----------4h542---------------------|
E|-2-22254-2-22240------------------|-2-22254-2-------542-----------------|

G|------------------------------------------------------------------------|
D|------------------------------------------------------------------------|
A|-555555-----------------------------------------------------------------|
E|--------54--------------------------------------------------------------|

(chorus 3) ("So break yourself")
G|-----------------------------------|------------------------------------|
D|-----------------------------------|------------------------------------|
A|-----------------------------------|------------------------------------|
E|-0000000000000000-2222222222222222-|-0000000000000000-2222222/----------|

G|---------------|-------------------------------------|------------------|
D|---------------|-------------------------------------|------------------|
A|---------------|-------------------------------------|------------------|
E|-555/77/99/10\-|-00000000000x-2222/555/777/99/14\12\-|-0000000000000000-|

G|------------------|----------------------------------------------------|
D|------------------|----------------------------------------------------|
A|-5555555555555555-|--------------44445555/9999/12121212/17171717\------|
E|------------------|-222244445555---------------------------------------|

(outro)
G|--------------------------|---------------------------------------------|
D|-------------12~-------11-|-------------12~-------11--------------------|
A|-9~-------11--------------|-9~-------11--------------9~-----------------|
E|--------------------------|---------------------------------------------|

| /  slide up
| \  slide down
| h  hammer-on
| p  pull-off
| ~  vibrato
| +  harmonic
| x  Mute note
Colaboração e revisão:
  • Leonardo Barp

0 comentários

    mostrar mais comentários

    Conseguiu tocar?

    6tocaram0ainda não

    Grave um vídeo tocando Snuff e mande pra gente!

    00:00 / 00:00
    outros vídeos desta música
    repetirqualidadeautomática
    Outro vídeos desta música
      00:00 / 00:00
      automática
      OK