Cifra Club

Aprenda

Days of the Week

Stone Temple Pilots

Tab de baixo: Principal
Days of the Week"

The "|" marks are the downbeats

Bass Tab
by Mel Hernandez

Verse:
Mon |     |     |     |     |     |     |     |
G:---------------------------------------------------
D:-------------------------------------/7-----7------
A:-----------------------4-----5-----7---------------
E:--5--------0--5------------------------------------
    |     |     |     |     |     |     |     |
G:---------------------------------------------------
D:---------------------------------------------------
A:-----0--2--0-----------------0-----2--0------------
E:--3--------------3-----3-----------------3--3------
Tue |     |     |     |     |     |     |     |
G:---------------------------------------------------
D:-------------------------------------/7-----7------
A:-----------------------4-----5-----7---------------
E:--5--------0--5------------------------------------
    |     |     |     |     |     |     |     |
G:---------------------------------------------------
D:----------------------/5-----4-----2-----0---------
A:-----0--2--0--------------------------------4\-----
E:--3--------------3---------------------------------
  At 3rd verse START here.
Wed |     |     |     |     |     |     |     |
G:---------------------------------------------------
D:-------------------------------------/7-----7------
A:-----------------------4-----5-----7---------------
E:--5--------0--5------------------------------------
    |     |     |     |     |     |     |     |
G:---------------------------------------------------
D:---------------------------------------------------
A:-----0--2--0-----------------0-----2--0------------
E:--3--------------3-----3-----------------3--3------
Thu |     |     |     |     |     |     |     |
G:---------------------------------------------------
D:-------------------------------------/7-----7------
A:-----------------------4-----5-----7---------------
E:--5--------0--5------------------------------------
    |     |     |     |     |     |     |     |
G:---------------------------------------------------
D:---------------------------------------------------
A:-----0--2--0-----------5-----4-----2-----0---------
E:--3--------------3--------------------------4\-----


Chorus:
    |     |     |     |     |     |     |     |
G:---------------------------------------------------
D:---------------------------------------------------
A:-----------------------2-----2--2-----2--2--4--2---
E:--2-----2-----2--2---------------------------------
    |     |     |     |     |     |     |     |
G:---------------------------------------------------
D:-----------------------------------------0--2--4---
A:-----------------------2-----2--2-----4------------
E:--2-----2-----2--2---------------------------------
    |     |     |     |     |     |     |     |
G:--------------------4--4--4--6-------/7----/7------
D:--5--5--5--7---------------------------------------
A:---------------------------------------------------
E:---------------------------------------------------
  At 2nd chorus skip to "bridge" now-
    |     |     |     |     |     |     |     |
G:--6------------------------------------------------
D:-----------7--7-----------------------7--5---------
A:-----------------------7-----7-----5-7------7\-----
E:---------------------------------------------------
    |     |     |     |     |     |     |     |
G:---------------------------------------------------
D:----------------------/5-----4-----2-----0---------
A:-----0--2--0--------------------------------4\-----
E:--3--------------3---------------------------------


Bridge:
    |     |     |     |     |     |     |     |
G:--6--------------------------7--------7------------
D:-----------7--7--------7--5--------5---------------
A:---------------------------------------------------
E:---------------------------------------------------
    |     |     |     |     |     |     |     |
G:--6--------------------------7--------7------------
D:-----------7--7--------7--5--------5---------------
A:---------------------------------------------------
E:---------------------------------------------------
    |     |     |     |     |     |     |     |
G:--6--------------------------7--------7------------
D:-----------7--7--------7--5--------5---------------
A:---------------------------------------------------
E:---------------------------------------------------
    |     |     |     |     |     |     |     |
G:--6--------------------------7---------------------
D:-----------7--7--------7--5-----5------------------
A:---------------------------------------------------
E:--------------------------------------------hold...

Song Order:
Verse1:  Play verse
Chorus1: Play chorus
Verse2:  Play verse
Chorus2: Play chorus but to bridge where it says to
Bridge:  Play bridge
Verse3:  Play verse but make start at the "wed" part
Chorus3: Play chorus but repeat end part 3 times and end on 3rd beat the
3rd
Composição de Dean DeLeo / Scott Weiland
463 exibições

0 comentários

Mostrar mais comentários

Conseguiu tocar?

0 Tocaram 0 Ainda não

Grave um vídeo tocando Days of the Week e mande pra gente!

00:00 / 00:00
outros vídeos desta música
repetir qualidade Automático
Outros vídeos desta música
00:00 / 00:00
Automático

Cifra Club Pro

Aproveite o Cifra Club com benefícios exclusivos e sem anúncios
7 dias grátis
Cifra Club Pro
Aproveite o Cifra Club com benefícios exclusivos e sem anúncios
7 dias grátis
OK