Cifra Club

Aprenda

Summertime Solo

Sublime

Tab de baixo: Principal
its not really a solo its just wat the bass has...thru like the entire song

G|-----------------|
D|-----------1-0---|
A|-----131-3-------|
E|3--3-------------|

this part s optional...i do it cuz it sounds kewl

G|------------------|
D|--------1-0-------|
A|--131-3-----31----|
E|3--------------3--|
            ^^^^

and sometimes theres this

G|-------------------------|
D|-------------------------|
A|3-3-3---0-0----5-5-------|
E|--------------------3----|
then back to the beginning
6.377 exibições

0 comentários

Mostrar mais comentários

Conseguiu tocar?

0 Tocaram 0 Ainda não

Grave um vídeo tocando Summertime Solo e mande pra gente!

00:00 / 00:00
outros vídeos desta música
repetir qualidade Automático
Outros vídeos desta música
00:00 / 00:00
Automático

Cifra Club Pro

Aproveite o Cifra Club com benefícios exclusivos e sem anúncios
Cifra Club Pro
Aproveite o Cifra Club com benefícios exclusivos e sem anúncios
OK