Cifra Club

Aprenda

Blood in my eyes

Sum 41

Cifra: Principal (violão e guitarra)
Tom: Em
INTRO a x3

E|-----0-----0-|-----0-----0-|-----0-----0-|-----0-----0-|
B|-8-8---8-8---|-7-7---7-7---|-4-4---4-4---|-5-5---5-5---|
G|-------------|-------------|-------------|-------------|
D|-------------|-------------|-------------|-------------|
A|-------------|-------------|-------------|-------------|
E|-------------|-------------|-------------|-------------|

INTRO b x1

E|-----0-----0-|-----0-----0-|-----0-----0-|-0-----------|
B|-8-8---8-8---|-7-7---7-7---|-4-4---4-4---|-5-----------|
G|-------------|-------------|-------------|-4-----------|
D|-------------|-------------|-------------|-------------|
A|-------------|-------------|-------------|-------------|
E|-------------|-------------|-------------|-------------|

INTRO c x1

E|--------------------------------------------|
B|--------------------------------------------|
G|-9-9-9-9---9-9-9-9-9---9-9-9-9-9---9--------|
D|--------------------------------------9--10-|
A|-7-7-7-7---7-7-7-7-7---7-7-7-7-7---7--9--10-|
E|--------------------------------------7--8--|

E|-------------------------------------------------|
B|-------------------------------------------------|
G|-9-9-9-9---9-9-9-9-9---9-------------------------|
D|-------------------------------------------------|
A|-7-7-7-7---7-7-7-7-7---7-------------------4-5-4-|
E|-------------------------7-0-0-8-0-0-7-0-0-2-3-2-|
INTRO d x1 (same as INTRO c with different ending)

E|--------------------------------------------|
B|--------------------------------------------|
G|-9-9-9-9---9-9-9-9-9---9-9-9-9-9---9--------|
D|--------------------------------------9--10-|
A|-7-7-7-7---7-7-7-7-7---7-7-7-7-7---7--9--10-|
E|--------------------------------------7--8--|

E|-------------------------------------------------|
B|-------------------------------------------------|
G|-9-9-9-9---9-9-9-9-9---9-------------------------|
D|-------------------------------------------------|
A|-7-7-7-7---7-7-7-7-7---7-------------------------|
E|-------------------------7-0-0-8-0-0-7-0-0-3-----|

MAIN RIFF x4

E|-------------------------|-------------------------|
B|-------------------------|-------------------------|
G|-------------------------|-------------------------|
D|-------------------------|-------------------------|
A|-------------------------|-------------4-5---4-5---|
E|-0---0-7-0-0-8-0-0-7-0-0-|-5-0-0-3-0-0-2-3-0-2-3-0-|

FILL x1

E|-----------------|-----------------|-----------------|-----------------|
B|-----------------|-----------------|-----------------|-----------------|
G|-----------------|-----------------|-----------------|-----------------|
D|-2---------------|-2---------------|-2---------------|-2---------------|
A|-2---------------|-2---------------|-2---------------|-2---------------|
E|-0---------------|-0---------------|-0---------------|-0---------------|

VERSE a x1

"I don't believe in the secrets you keep but I do wanna know..."

E|-------------|-------------|-------------|-------------|
B|-------8-----|-------8-----|-------4-----|-------4-----|
G|-----9---9---|-----9---9---|-----4---4---|-----4---4---|
D|---9-------9-|---9-------9-|---4-------4-|---4-------4-|
A|-7-----------|-7-----------|-2-----------|-2-----------|
E|-------------|-------------|-------------|-------------|

E|-------------|-------------|-------------|
B|-------5-----|-------------|-------3-----|
G|-----5---5---|-------4-----|-----4---4---|
D|---5-------5-|-----5---5---|---4-------4-|
A|-3-----------|---5-------5-|-2-----------|
E|-------------|-3-----------|-------------|

VERSE b x1

"And I'm over you, congratulations..."

E|-----------------|-----------------|-----------------|-----------------|
B|-----------------|-----------------|-----------------|-----------------|
G|-----------------|-----------------|-5---------------|-----------------|
D|-2---------------|-2-2-------------|-5---------------|-5-5-------------|
A|-2---------------|-2-2-------------|-3---------------|-5-5-------------|
E|-0---------------|-0-0-------------|-----------------|-3-3-------------|

PRE-CHORUS x1

"And thank you for all the pain..."

E|-------------|-------------|-------------|-------------|
B|-------------|-------------|-------------|-------------|
G|-9---9-9-9-9-|-9---9-9-9-9-|-9---9-9-9-9-|-9---9-9-9-9-|
D|-------------|-------------|-------------|-------------|
A|-7---7-7-7-7-|-7---7-7-7-7-|-7---7-7-7-7-|-7---7-7-7-7-|
E|-------------|-------------|-------------|-------------|

E|-------------|-------------|-------------|
B|-------------|-------------|-------------|
G|-5---5-5-5-5-|-5---5-5-5-5-|-8---8-8-8-8-|
D|-------------|-------------|-------------|
A|-3---3-3-3-3-|-3---3-3-3-3-|-6---6-6-6-6-|
E|-------------|-------------|-------------|

CHORUS x2

"There's nothing to say, the feelings are already dead..."

E|------------------|------------------|------------------|------------------|
B|------------------|------------------|------------------|------------------|
G|------------------|------------------|-7--7--7--7--7--7-|------------------|
D|-2--2--2--2--2--2-|-5--5--5--5--5--5-|-7--7--7--7--7--7-|-7--7--7--7--7--7-|
A|-2--2--2--2--2--2-|-5--5--5--5--5--5-|-5--5--5--5--5--5-|-7--7--7--7--7--7-|
E|-0--0--0--0--0--0-|-3--3--3--3--3--3-|------------------|-5--5--5--5--5--5-|

E|------------------|------------------|-------------|-------------|
B|------------------|------------------|-------------|-------------|
G|------------------|------------------|-4---4-4-4-4-|-7---7-7-7-7-|
D|-2--2--2--2--2--2-|-5--5--5--5--5--5-|-------------|-------------|
A|-2--2--2--2--2--2-|-5--5--5--5--5--5-|-2---2-2-2-2-|-5---5-5-5-5-|
E|-0--0--0--0--0--0-|-3--3--3--3--3--3-|-------------|-------------|
MAIN RIFF x2

E|-------------------------|-------------------------|
B|-------------------------|-------------------------|
G|-------------------------|-------------------------|
D|-------------------------|-------------------------|
A|-------------------------|-------------4-5---4-5---|
E|-0---0-7-0-0-8-0-0-7-0-0-|-5-0-0-3-0-0-2-3-0-2-3-0-|

VERSE a x1

"Seen through the lines while beliving the lies for too long a time..."

E|-------------|-------------|-------------|-------------|
B|-------8-----|-------8-----|-------4-----|-------4-----|
G|-----9---9---|-----9---9---|-----4---4---|-----4---4---|
D|---9-------9-|---9-------9-|---4-------4-|---4-------4-|
A|-7-----------|-7-----------|-2-----------|-2-----------|
E|-------------|-------------|-------------|-------------|

E|-------------|-------------|-------------|
B|-------5-----|-------------|-------3-----|
G|-----5---5---|-------4-----|-----4---4---|
D|---5-------5-|-----5---5---|---4-------4-|
A|-3-----------|---5-------5-|-2-----------|
E|-------------|-3-----------|-------------|

VERSE b x1

"And now war's declared, drawing the battle lines..."

E|-----------------|-----------------|-----------------|-----------------|
B|-----------------|-----------------|-----------------|-----------------|
G|-----------------|-----------------|-5---------------|-----------------|
D|-2---------------|-2-2-------------|-5---------------|-5-5-------------|
A|-2---------------|-2-2-------------|-3---------------|-5-5-------------|
E|-0---------------|-0-0-------------|-----------------|-3-3-------------|

PRE-CHORUS x1

"And I can't see straight anymore..."

E|-------------|-------------|-------------|-------------|
B|-------------|-------------|-------------|-------------|
G|-9---9-9-9-9-|-9---9-9-9-9-|-9---9-9-9-9-|-9---9-9-9-9-|
D|-------------|-------------|-------------|-------------|
A|-7---7-7-7-7-|-7---7-7-7-7-|-7---7-7-7-7-|-7---7-7-7-7-|
E|-------------|-------------|-------------|-------------|

E|-------------|-------------|-------------|
B|-------------|-------------|-------------|
G|-5---5-5-5-5-|-5---5-5-5-5-|-8---8-8-8-8-|
D|-------------|-------------|-------------|
A|-3---3-3-3-3-|-3---3-3-3-3-|-6---6-6-6-6-|
E|-------------|-------------|-------------|

CHORUS x2

"There's nothing to say, the feelings are already dead..."

E|------------------|------------------|------------------|------------------|
B|------------------|------------------|------------------|------------------|
G|------------------|------------------|-7--7--7--7--7--7-|------------------|
D|-2--2--2--2--2--2-|-5--5--5--5--5--5-|-7--7--7--7--7--7-|-7--7--7--7--7--7-|
A|-2--2--2--2--2--2-|-5--5--5--5--5--5-|-5--5--5--5--5--5-|-7--7--7--7--7--7-|
E|-0--0--0--0--0--0-|-3--3--3--3--3--3-|------------------|-5--5--5--5--5--5-|

E|------------------|------------------|-------------|-------------|
B|------------------|------------------|-------------|-------------|
G|------------------|------------------|-4---4-4-4-4-|-7---7-7-7-7-|
D|-2--2--2--2--2--2-|-5--5--5--5--5--5-|-------------|-------------|
A|-2--2--2--2--2--2-|-5--5--5--5--5--5-|-2---2-2-2-2-|-5---5-5-5-5-|
E|-0--0--0--0--0--0-|-3--3--3--3--3--3-|-------------|-------------|

BRIDGE a x1 (same as INTRO b)

E|-----0-----0-|-----0-----0-|-----0-----0-|-0-----------|
B|-8-8---8-8---|-7-7---7-7---|-4-4---4-4---|-5-----------|
G|-------------|-------------|-------------|-4-----------|
D|-------------|-------------|-------------|-------------|
A|-------------|-------------|-------------|-------------|
E|-------------|-------------|-------------|-------------|

BRIDGE b x2

E|-x-x-x-x-x-x-x-x-|-x-x-x-x-x-x-x-x-|-x-x-x-x-x-x-x-x-|-x-x-x-x-x-x-x-x-|
B|-x-x-x-x-x-x-x-x-|-x-x-x-x-x-x-x-x-|-x-x-x-x-x-x-x-x-|-x-x-x-x-x-x-x-x-|
G|-x-x-x-x-x-x-x-x-|-x-x-x-x-x-x-x-x-|-x-x-x-x-x-x-x-x-|-x-x-x-x-x-x-x-x-|
D|-x-x-x-x-x-x-x-x-|-x-x-x-x-x-x-x-x-|-x-x-x-x-x-x-x-x-|-x-x-x-x-x-x-x-x-|
A|-x-x-x-x-x-x-x-x-|-x-x-x-x-x-x-x-x-|-x-x-x-x-x-x-x-x-|-x-x-x-x-x-x-x-x-|
E|-x-x-x-x-x-x-x-x-|-x-x-x-x-x-x-x-x-|-x-x-x-x-x-x-x-x-|-x-x-x-x-x-x-x-x-|

SOLO a x2

GUITAR 1

E|-----------------|-----------------|-----------------|-----------------|
B|-----------------|-----------------|-----------------|-----------------|
G|-----------------|-----------------|-----------------|-----------------|
D|-2-1-2-4---------|---------------1-|-2-1-2-4-5-------|---------------1-|
A|---------------2-|-----2-----2-----|---------------2-|-----2-----2-----|
E|---------3-0-3---|-0-3---0-3---3---|-----------0-3---|-0-3---0-3---3---|
 .....................................................................

GUITAR 2

E|-----------------|-----------------|-----------------|-----------------|
B|-----------------|-----------------|-----------------|-----------------|
G|-9--------8------|-11--------9-----|-9--------8------|-11--------12----|
D|-----------------|-----------------|-----------------|-----------------|
A|-7--------6------|-9---------7-----|-7--------6------|-9---------10----|
E|-----------------|-----------------|-----------------|-----------------|

SOLO b x1

E|-----------------|-----------------|-----------------|-----------------|
B|-----------------|-----------------|-----------------|-----------------|
G|-----------------|-----------------|-----------------|-----------------|
D|-----------------|-----------------|-----------------|-----------------|
A|-----------------|-----------------|-----------------|-----------------|
E|-0-0-0-3-3-3-2-2-|-2-3-3-3-5-5-5-5-|-0-0-0-3-3-3-2-2-|-2-3-3-3-5-5-5-5-|
E|-----------------|-----------------|-----------------|-----------------|
B|-----------------|-----------------|-----------------|-----------------|
G|-----------------|-----------------|-----------------|-----------------|
D|-----------------|-----------------|-----------------|---------x-x-x-x-|
A|-----------------|-----------------|-----------------|---------x-x-x-x-|

E|-0-0-0-3-3-3-2-2-|-2-3-3-3-5-5-5-5-|-0-0-0-3-3-3-2-2-|-2-3-3-3-x-x-x-x-|
E|-----------------|-----------------|-----------------|-----------------|
B|-----------------|-----------------|-----------------|-----------------|
G|-----------------|-----------------|-----------------|-----------------|
D|-----------------|-----------------|-----------------|-x-x-x-x-x-x-x-x-|
A|-----------------|-----------------|-----------------|-x-x-x-x-x-x-x-x-|
E|-0-0-0-3-3-3-2-2-|-2-3-3-3-5-5-5-5-|-0-0-0-3-3-3-2-2-|-x-x-x-x-x-x-x-x-|

CHORUS x2
"There's nothing to say, the feelings are already dead..."
E|------------------|------------------|------------------|------------------|
B|------------------|------------------|------------------|------------------|
G|------------------|------------------|-7--7--7--7--7--7-|------------------|
D|-2--2--2--2--2--2-|-5--5--5--5--5--5-|-7--7--7--7--7--7-|-7--7--7--7--7--7-|
A|-2--2--2--2--2--2-|-5--5--5--5--5--5-|-5--5--5--5--5--5-|-7--7--7--7--7--7-|
E|-0--0--0--0--0--0-|-3--3--3--3--3--3-|------------------|-5--5--5--5--5--5-|

E|------------------|------------------|-------------|-------------|
B|------------------|------------------|-------------|-------------|
G|------------------|------------------|-4---4-4-4-4-|-7---7-7-7-7-|
D|-2--2--2--2--2--2-|-5--5--5--5--5--5-|-------------|-------------|
A|-2--2--2--2--2--2-|-5--5--5--5--5--5-|-2---2-2-2-2-|-5---5-5-5-5-|
E|-0--0--0--0--0--0-|-3--3--3--3--3--3-|-------------|-------------|
Composição de Deryck Whibley
Colaboração e revisão:
  • Francisco Adónis
1.549 exibições
    • ½ Tom
    • Am
    • Bbm
    • Bm
    • Cm
    • C#m
    • Dm
    • Ebm
    • Em
    • Fm
    • F#m
    • Gm
    • G#m
  • Adicionar à lista

    0 comentários

    Mostrar mais comentários

    Conseguiu tocar?

    0 Tocaram 0 Ainda não

    Grave um vídeo tocando Blood in my eyes e mande pra gente!

    00:00 / 00:00
    outros vídeos desta música
    repetir qualidade Automático
    Outros vídeos desta música
    00:00 / 00:00
    Automático

    Cifra Club Pro

    Aproveite o Cifra Club com benefícios exclusivos e sem anúncios
    7 dias grátis
    Cifra Club Pro
    Aproveite o Cifra Club com benefícios exclusivos e sem anúncios
    7 dias grátis
    OK