Cifra Club

My Direction

Sum 41

Tab de baixo: Principal
 

Gtr I (Eb Ab Db Gb) 


 Intro    Chorus
  Fast Rock Q=159
       $
       $$
 2/4      4/4
  Gtr I
  H        Q  E E Q  E E   E E E E Q.   E
|------||----------------|-----------------||
|------||o---------------|----------------o||
|------||o-------------2-|---2------------o||
|------||--2----0-0------|-------2-2-------||


                                                         To Coda
                                                         To Coda
  Q  E E Q  E E   E E E E H       Q  E E Q  E E   E E E E Q   Q
|---------------|---------------|-------------4-|---2------------||
|---------------|---2---4-4\----|---------------|-------4-4\-----||
|-------------2-|---------------|---------------|----------------||
|-2----0-0------|---------------|-2----0-0------|----------------||


 Verse
  Faster Q=164
  Wx3          H.       Q       E E +E  E E. S +E  E
|------------|--------------||------------------------||
|------------|--------------||o--------------------9-o||
|------------|--------------||o---9-(9)-9-7--6-(6)---o||
|------------|---------14\--||------------------------||


                         1.
    E E S S E E E S S E   E E S S E E E S S E
||----------------------|----------------------||
||o---------------------|---------------------o||
||o-9-9-9-9-9-9-9-9-9-9-|-7-7-7-7-7S2-2-2-2-2-o||
||----------------------|----------------------||


  2.
                  D.S. al Coda
   E  E  S  S  E  E  S  S  Q
|------------------------------||
|------------------------------||
|-11-11-11-11-11-14-14-14-14\--||
|------------------------------||


   Bridge
    &
    E E E E H      E E Q  E E Q    E E E E H      H    Q  Q
||---------------|---------------|--------------|--------------||
||o--------------|---------------|--------------|-------------o||
||o--------------|--------2-2----|--------------|------2------o||
||--2-2-2--------|-0-0-----------|-2-2-2--------|-0-------0----||


  q  q  q  q    q  q  q  q    q  q  q  q    q  q  q  q
|-------------|-------------|-------------|-------------|
|-------------|-------------|-------------|-------------|
|-------------|-------2--2--|-------------|-------2--2--|
|-2--2--2--2--|-0--0--------|-2--2--2--2--|-4--4--------|


                                       D.S.S. al Dbl. Coda
  q  q  q  q    q  q  q  q    q  q  q  q    E E E E E E E E
|-------------|-------------|-------------|-----------------||
|-------------|-------------|-------------|-----------------||
|-------------|-------2--2--|-------------|---------2-2-2-2-||
|-2--2--2--2--|-0--0--------|-2--2--2--2--|-0-0-0-0---------||


 Interlude
  &&
  E E E E H      W          E E Q  E E E E   E E E E E E Q
|--------------|----------|----------------|----------------|
|-4-4-4--------|----------|-4-4-4----2---4-|---2-------2-2--|
|--------------|----------|----------------|-------2--------|
|--------------|----------|----------------|----------------|


    E E E E E E E E   E E E E E E Q   3x E E E E E E E E   E E E E E E E S S
||------------------|-----------------||-----------------|-------------------|
||o-4-4---2---4---2-|-------2--------o||-4-4---2---4---2-|-------2-----------|
||o-----------------|---2-------2-2--o||-----------------|---2-------2-2-2-2-|
||------------------|-----------------||-----------------|-------------------|


  Q.   S S Q.   S S   E E Q  Q.   S S   Q.   S S Q.   S S   E E Q  Q.   S S
|-------------------|-----------------|-------------------|-----------------|
|-------------------|-----------------|-------------------|-----------------|
|-4----4-4-2----2-2-|-4-----------2-2-|-4----4-4-2----2-2-|-4-----------2-2-|
|-------------------|-----------------|-------------------|-----------------|


                       1.,2.,3.                  4.
    Q.   S S Q.   S S   Q.   S S E S S E S S  4x E S S E   S  S  E  S  S  Q
||--------------------|-----------------------||------------------------------||
||o-------------------|----------------------o||---------/11-11-11-11-11-11\--||
||o-4----4-4-2----2-2-|-4----4-4-2-2-2-------o||-4-4-4-4----------------------||
||--------------------|----------------2-2-2--||------------------------------||


 Chorus
  Q  E E Q  E E   E E E E Q.   E   Q  E E Q  E E   E E E E Q    Q
|---------------|----------------|---------------|------------------|
|---------------|----------------|---------------|------------------|
|-------------2-|---2------------|-------------2-|---2--------------|
|-2----0-0------|-------2-2------|-2----0-0------|-------2-2--/14\--|


  Q  E E Q  E E   E E E E H       Q  E E Q  E E   E E E E Q   Q
|---------------|---------------|-------------4-|---2------------*|
|---------------|---2---4-4\----|---------------|-------4-4\-----*|
|-------------2-|---------------|---------------|----------------*|
|-2----0-0------|---------------|-2----0-0------|----------------*|

exibições 312

0 comentários

mostrar mais comentários

Conseguiu tocar?

0 tocaram 0 ainda não

Grave um vídeo tocando My Direction e mande pra gente!

00:00 / 00:00
outros vídeos desta música
repetir qualidade Automático
Outros vídeos desta música
00:00 / 00:00
Automático
OK