Cifra Club

Aprenda

Rebellion (Lies)

Arcade Fire

Tab de baixo: Versão 2
Verse
G|------------------------------------------------------------------------|
D|------------------------------------------------------------------------|
A|----------------6-6-6-6-6-6-6-6-----------------10-10-10-10-10-10-10-10-|
E|6-6-6-6-6-6-6-6-----------------6-6-6-6-6-6-6-6-------------------------|

Chorus
G|----------------------------------------------------------------|                                
D|----------------------------------------------------------------|
A|----------------6-6-6-6-6-6-6-6-----------------6-6-6-6-6-6-6-6-|
E|6-6-6-6-6-6-6-6-----------------6-6-6-6-6-6-6-6-----------------|
                                                                     
G|----------------------------------------------------------------|
D|----------------------------------------------------------------|
A|----------------6-6-6-6-6-6-6-6-----------------6-6-6-6-6-6-6-6-|
E|6-6-6-6-6-6-6-6-----------------6-6-6-6-6-6-6-6-----------------|

G|-------------------------------------------------------------------|
D|-------------------------------------------------------------------|
A|-------------------------------------------------------------------|
E|6-6-6-6-6-6-6-6--2-2-2-2-2-2-2-2--9-9-9-9-9-9-9-9--4-4-4-4-4-4-4-4-|
Composição de Arcade Fire
75 exibições

0 comentários

Ver todos os comentários

Conseguiu tocar?

0 Tocaram 0 Ainda não

Grave um vídeo tocando Rebellion (Lies) e nos envie!

00:00 / 00:00
Outros vídeos desta música
Repetir Qualidade Automático
Outros vídeos desta música
00:00 / 00:00
Automático

Cifra Club Pro

Aproveite o Cifra Club com benefícios exclusivos e sem anúncios
Cifra Club Pro
Aproveite o Cifra Club com benefícios exclusivos e sem anúncios
OK