Cifra Club

Aprenda

The Wedge

The Bambi Molesters

Cifra: Principal (violão e guitarra)
Tom: A
Intro
|-------|
|-------|
|-14\\\-|
|-------|
|-------|
|-------|

Verses
|-------------------------------------------------------------------------------------------------|
|-------------------------------------------------------------------------------------------------|
|-2---------2-2-2-5-2-2-2-2-------2-2-5-5-4-4---------2-2-----------------------------------14\\\-|
|---2-2-2-------------------2-2-2-------------5-5-3-3-----5-5-3-3-2-2-2-2-2-3-5-3-2-2-2-2-2-------|
|-------------------------------------------------------------------------------------------------|
|-------------------------------------------------------------------------------------------------|
            + + +   + + + + + + + + + + + + + + + + + + + + + + + + + + + + + + + + + + + +

|-------------------------------------------------------------------------------------------------|
|-------------------------------------------------------------------------------------------------|
|-2---------2-2-2-5-2-5-2-5-------2-2-5-5-4-4---------2-2-----------------------------------------|
|---2-2-2-------------------2-2-2-------------5-5-3-3-----5-5-3-3-2-2-2-2-2-3-5-3-2-2-2-2-2/14\\\-|
|-------------------------------------------------------------------------------------------------|
|-------------------------------------------------------------------------------------------------|
            + + +           + + + + + + + + + + + + + + + + + + + + + + + + + + + + + + + +

Pre-chorus
|---------------------------------------------------------8--8--8--8-------------------------------|
|---------------------------------------------------10---10-10-10-10-------------------------------|
|-----1-1-2-2-4-4-4-4-4-4-4-4-7-7-7-7-7-5-2-4-5-5-5-10---10-10-10-10---2-2-2-2-4-4-5-5-5-5-4-4-5-5-|
|-2-2----------------------------------------------------------------------------------------------|
|--------------------------------------------------------------------------------------------------|
|--------------------------------------------------------------------------------------------------|
  + + + + + + + + + + + + + + + + + + +       + +                      + + + + + + + + + + + + + +

|-----------------------------------|
|-----------------------------------|
|-7-7-7-7-7-5-2-2-4-4-4-4-4-4-4-4-4-|
|-----------------------------------|
|-----------------------------------|
|-----------------------------------|
  + + + + + + + + + + + + + + + + +

|---------------------------------------------------------8--8--8--8-------------------------------|
|---------------------------------------------------10---10-10-10-10-------------------------------|
|-----1-1-2-2-4-4-4-4-4-4-4-4-7-7-7-7-7-5-2-4-5-5-5-10---10-10-10-10---2-2-2-2-4-4-5-5-5-5-4-4-5-5-|
|-2-2----------------------------------------------------------------------------------------------|
|--------------------------------------------------------------------------------------------------|
|--------------------------------------------------------------------------------------------------|
  + + + + + + + + + + + +     + + + + +       + +                      + + + + + + + + + + + + + +

|----------------------------------------------------------------------------------------------|
|----------------------------------------------------------------------5-----------------------|
|-7-7-7-7-5-5-7-7-9-9-9-9-9-10-12-10-9-9-9-4-4-7-5-4-5-5-5-2-2-2-4-5-7---7-5-4-----------------|
|------------------------------------------------------------------------------7-5---2-2-2-2-2-|
|----------------------------------------------------------------------------------------------|
|----------------------------------------------------------------------------------------------|
 + + + + + + + + + + + + + + + + + + + + + + + + + + + + + + + +                     + + + + +

|----------------------------------------------------------|
|----------------------------------------------------------|
|----------------------------------------------------------|
|-5-3-2-7-7-7---------------------------0-2-0--------------|
|-------------2---5-3-2-3-3-3-0-0-0-2-3-------3-2-0--------|
|---------------------------------------------------3b---0-|
  + + + + + + +         + + + + + +                (4)

Bridge (Guitar #1 & #2)   Guitar #1
|-------------------------|-----------------------------------------------------------------|
|-------------------------|-----------------------------------------------------------------|
|-------------------------|-----------------------------------------------------------------|
|-------------------------|-----------------------------------------------------------------|
|-----2-----2-0-3-2-0-----|-------------2-2-------------2-2-0-0-0-3-3-3-2-2-0-0-0-----------|
|-0-4---0-4-----------3-1-|-0-0-0-4-4-4-----0-0-0-4-4-4---------------------------3-3-3-1-1-|
                            + + + + + + + + + + + + + + + + + + + + + + + + + + + + + + + +

Guitar #2
|-----0-0---0-------0-0---0---------------------------------------|
|-----0-0---0-------0-0---0---------------------------------------|
|-----1-1---1-------1-1---1---------------------------------------|
|-2---2-2---2---2---2-2---2---------------------------------------|
|-2---2-2---2---2---2-2---2---------------------------------------|
|-0---0-0---0---0---0-0---0---13-13-13-13-13-13\\\\\\\\\\\\\\\\\\-|
                               +  +  +  +  +  +

|---------/12-12-12-12-|
|---------/12-12-12-12-|
|---------/13-13-13-13-|
|---------/14-14-14-14-| x3
|---------/14-14-14-14-|
|-0-------/12-12-12-12-|

|---------------------|
|---------------------|
|-14\\\\\\\\\\\\\\\\\-|
|---------------------|
|---------------------|
|---------------------|

Verses
|-------------------------------------------------------------------------------------------------|
|-------------------------------------------------------------------------------------------------|
|-2---------2-2-2-5-2-2-2-2-------2-2-5-5-4-4---------2-2-----------------------------------14\\\-|
|---2-2-2-------------------2-2-2-------------5-5-3-3-----5-5-3-3-2-2-2-2-2-3-5-3-2-2-2-2-2-------|
|-------------------------------------------------------------------------------------------------|
|-------------------------------------------------------------------------------------------------|
            + + +   + + + + + + + + + + + + + + + + + + + + + + + + + + + + + + + + + + + +

|-------------------------------------------------------------------------------------------------|
|-------------------------------------------------------------------------------------------------|
|-2---------2-2-2-5-2-5-2-5-------2-2-5-5-4-4---------2-2-----------------------------------------|
|---2-2-2-------------------2-2-2-------------5-5-3-3-----5-5-3-3-2-2-2-2-2-3-5-3-2-2-2-2-2/14\\\-|
|-------------------------------------------------------------------------------------------------|
|-------------------------------------------------------------------------------------------------|
            + + +           + + + + + + + + + + + + + + + + + + + + + + + + + + + + + + + +

Pre-chorus
|---------------------------------------------------------8--8--8--8-------------------------------|
|---------------------------------------------------10---10-10-10-10-------------------------------|
|-----1-1-2-2-4-4-4-4-4-4-4-4-7-7-7-7-7-5-2-4-5-5-5-10---10-10-10-10---2-2-2-2-4-4-5-5-5-5-4-4-5-5-|
|-2-2----------------------------------------------------------------------------------------------|
|--------------------------------------------------------------------------------------------------|
|--------------------------------------------------------------------------------------------------|
  + + + + + + + + + + + + + + + + + + +       + +                      + + + + + + + + + + + + + +

|-----------------------------------|
|-----------------------------------|
|-7-7-7-7-7-5-2-2-4-4-4-4-4-4-4-4-4-|
|-----------------------------------|
|-----------------------------------|
|-----------------------------------|
  + + + + + + + + + + + + + + + + +

Chorus
|---------------------------------------------------------8--8--8--8-------------------------------|
|---------------------------------------------------10---10-10-10-10-------------------------------|
|-----1-1-2-2-4-4-4-4-4-4-4-4-7-7-7-7-7-5-2-4-5-5-5-10---10-10-10-10---2-2-2-2-4-4-5-5-5-5-4-4-5-5-|
|-2-2----------------------------------------------------------------------------------------------|
|--------------------------------------------------------------------------------------------------|
|--------------------------------------------------------------------------------------------------|
  + + + + + + + + + + + + + + + + + + +       + +                      + + + + + + + + + + + + + +

|----------------------------------------------------------------------------------------------|
|----------------------------------------------------------------------5-----------------------|
|-7-7-7-7-5-5-7-7-9-9-9-9-9-10-12-10-9-9-9-4-4-7-5-4-5-5-5-2-2-2-4-5-7---7-5-4-----------------|
|------------------------------------------------------------------------------7-5---2-2-2-2-2-|
|----------------------------------------------------------------------------------------------|
|----------------------------------------------------------------------------------------------|
 + + + + + + + + + + + + + + + + + + + + + + + + + + + + + + + +                     + + + + +

|----------------------------------------------------------|
|----------------------------------------------------------|
|----------------------------------------------------------|
|-7-5-3-2-2-2---------------------------0-2-0--------------|
|-------------2---5-3-2-3-3-3-0-0-0-2-3-------3-2-0--------|
|---------------------------------------------------3b---0-|
  + + + + + + +         + + + + + +                (4)

Bridge (Guitar #1 & #2)   Guitar #1
|-------------------------|-----------------------------------------------------------------|
|-------------------------|-----------------------------------------------------------------|
|-------------------------|-----------------------------------------------------------------|
|-------------------------|-----------------------------------------------------------------|
|-----2-----2-0-3-2-0-----|-------------2-2-------------2-2-0-0-0-3-3-3-2-2-0-0-0-----------|
|-0-4---0-4-----------3-1-|-0-0-0-4-4-4-----0-0-0-4-4-4---------------------------3-3-3-1-1-|
                            + + + + + + + + + + + + + + + + + + + + + + + + + + + + + + + +

Guitar #2
|-----0-0---0-------0-0---0---------------------------------------|
|-----0-0---0-------0-0---0---------------------------------------|
|-----1-1---1-------1-1---1---------------------------------------|
|-2---2-2---2---2---2-2---2---------------------------------------|
|-2---2-2---2---2---2-2---2---------------------------------------|
|-0---0-0---0---0---0-0---0---13-13-13-13-13-13\\\\\\\\\\\\\\\\\\-|
                               +  +  +  +  +  +

|---------12-12-12-12-|
|---------12-12-12-12-|
|---------13-13-13-13-|
|---------14-14-14-14-| x3
|---------14-14-14-14-|
|-0-------12-12-12-12-|

Outro
|---------------------0-|
|---------------------1-|
|-14\\\\\\\\\\\\\\\\\-2-|
|---------------------2-|
|---------------------0-|
|-----------------------|

Legenda: 

/ or \          slide up or down
  +             double picking
b or r          bend or release
Colaboração e revisão:
  • Marco Rotta
528 exibições
    • ½ Tom
    • A
    • Bb
    • B
    • C
    • Db
    • D
    • Eb
    • E
    • F
    • F#
    • G
    • Ab
  • Adicionar à lista

    0 comentários

    Mostrar mais comentários

    Conseguiu tocar?

    0 Tocaram 0 Ainda não

    Grave um vídeo tocando The Wedge e mande pra gente!

    00:00 / 00:00
    outros vídeos desta música
    repetir qualidade Automático
    Outros vídeos desta música
    00:00 / 00:00
    Automático

    Cifra Club Pro

    Aproveite o Cifra Club com benefícios exclusivos e sem anúncios
    Cifra Club Pro
    Aproveite o Cifra Club com benefícios exclusivos e sem anúncios
    OK