Cifra Club

Aprenda

Jail Guitar Doors Intro

The Clash

Cifra: Principal (violão e guitarra)
tom: A
(standard tuning)


Guitar 1
|-----------------------------------------------------|
|-----------------------------------------------------|
|-------------------9-8------------------------9------|
|-7/9--9---7/9--9---7-6-9----7/9--9---7/9--9---7-7-9--|
|-5/7--7---5/7--7-------7----5/7--7---5/7--7-----5-7--|
|-----------------------------------------------------|

Guitar 2
|------------------5-4-0-----------------------5------|
|------------------5-4-0-----------------------5-3-5--|
|-----------------------------------------------------|
|-----------------------------------------------------|
|-----------------------------------------------------|
|-----------------------------------------------------|

Guitar 1
------------------------------------------------------|
------------------------------------------------------|
--------------------9-8-------------------------------|
--7/9--9---7/9--9---7-6-9----7/9--9---7/9--9----------|
--5/7--7---5/7--7-------7----5/7--7---5/7--7---7------|
-----------------------------------------------5------|

Guitar 2
-------------------5-4-0-----------------------3b(5)--|
-------------------5-4-0------------------------------|
------------------------------------------------------|
------------------------------------------------------|
------------------------------------------------------|
------------------------------------------------------|
301 exibições
    • ½ Tom
    • A
    • Bb
    • B
    • C
    • Db
    • D
    • Eb
    • E
    • F
    • F#
    • G
    • Ab
  • Adicionar à lista

    0 comentários

    Ver todos os comentários

    Conseguiu tocar?

    0 Tocaram 0 Ainda não

    Grave um vídeo tocando Jail Guitar Doors Intro e nos envie!

    00:00 / 00:00
    outros vídeos desta música
    repetir qualidade Automático
    Outros vídeos desta música
    00:00 / 00:00
    Automático

    Cifra Club Pro

    Aproveite o Cifra Club com benefícios exclusivos e sem anúncios
    Cifra Club Pro
    Aproveite o Cifra Club com benefícios exclusivos e sem anúncios
    OK