Cifra Club

Roadhouse Blues

The Doors

Tab de baixo: Principal
exibições 41.008
Introdução:

Parte 1 (5x)
G|----------------------------------------------|
D|----------------7-8-9----------------7-8-9----|
A|-7-7--7-7--7-7---------7-7--7-7--7-7----------|
E|----------------------------------------------|

Primeira Parte:

A keep your eyes on the road, your hand upon...

Parte 1 (6x)
G|----------------------------------------------|
D|----------------7-8-9----------------7-8-9----|
A|-7-7--7-7--7-7---------7-7--7-7--7-7----------|
E|----------------------------------------------|

Introdução 2:

Parte 1 (2x)
G|----------------------------------------------|
D|----------------7-8-9----------------7-8-9----|
A|-7-7--7-7--7-7---------7-7--7-7--7-7----------|
E|----------------------------------------------|

Segunda Parte:

Yeah, the back of the roadhouse they got...

Parte 1 de 2 (5x)
G|----------------------------------------------|
D|----------------7-8-9----------------7-8-9----|
A|-7-7--7-7--7-7---------7-7--7-7--7-7----------|
E|----------------------------------------------|

Parte 2 de 2
G|----------------------------------------------|
D|----------------7-8-9-------------------------|
A|-7-7--7-7--7-7---------7-7--7-7--7-7--7-7-----|
E|----------------------------------------------|

Refrão:
 
Parte 1 de 2 (2x)
G|----------------------------------------------|
D|-------------4----------------4---------------|
A|-----4-4-7-7---7------4-4-7-7---7-----4-4-7-7-|
E|-5-5--------------5-5-------------5-5---------|

G|----------------------------------------------|
D|-4--------------------------------------------|
A|---7------------------------------------------|
E|----------------------------------------------|

Parte 2 de 2

G|----------------------------------------------|
D|----------------------------------------------|
A|----------------------------------------------|
E|-7-7-7--7-7-7--7-7-7--7-7-7--8-8-8--7---------|

Solo de Guitarra:

Parte 1 de 4
G|----------------------------------------------|
D|----------------7-8-9----------------7-8-9----|
A|-7-7--7-7--7-7---------7-7--7-7--7-7----------|
E|----------------------------------------------|

G|-------------------------------------9-7------|
D|----------------7-8-9--------------------9----|
A|-7-7--7-7--7-7---------7-7--7-7--7-7----------|
E|----------------------------------------------|

Parte 2 de 4 (2x)
G|----------------------------------------------|
D|----------------7-8-9----------------7-8-9----|
A|-7-7--7-7--7-7---------7-7--7-7--7-7----------|
E|----------------------------------------------|

Parte 3 de 4
G|-------------------------------------9-7------|
D|----------------7-8-9--------------------9----|
A|-7-7--7-7--7-7---------7-7--7-7--7-7----------|
E|----------------------------------------------|

G|----------------------------------------------|
D|----------------7-9----------------7-9--------|
A|-7-7--7-7--7-7-------7-7--7-7--7-7------------|
E|----------------------------------------------|

Parte 4 de 4 (3x)

Ya, ride...

G|----------------------------------------------|
D|----------------7-8-9----------------7-8-9----|
A|-7-7--7-7--7-7---------7-7--7-7--7-7----------|
E|----------------------------------------------|

Terceira Parte:

You gotta roll, roll, roll...

Parte 1 de 6 (4x)
G|----------------------------------------------|
D|----------------7-8-9----------------7--9-----|
A|-7-7--7-7--7-7---------7-7--7-7--7-7----------|
E|----------------------------------------------|

Parte 2 de 6 
G|----------------------------------------------|
D|----------------7-8-9----------------7--9-----|
A|-7-7--7-7--7-7---------7-7--7-7--7-7----------|
E|----------------------------------------------|

G|----------------9-7---------------------------|
D|--------------------9----------------7-8-9----|
A|-7-7--7-7--7-7---------7-7--7-7--7-7----------|
E|----------------------------------------------|
 
Parte 3 de 6 (2x)
G|----------------------------------------------|
D|----------------7-8-9----------------7--9-----|
A|-7-7--7-7--7-7---------7-7--7-7--7-7----------|
E|----------------------------------------------|

Parte 4 de 6 (4x)

Ashen lady,ashen lady...give up your vows...
G|----------------------------------------------|
D|----------------7-8-9----------------7--9-----|
A|-7-7--7-7--7-7---------7-7--7-7--7-7----------|
E|----------------------------------------------|

Parte 5 de 6

Save our city...

G|---------------------------9-9-7-7-9----------|
D|----------------7-8-9----------------9--------|
A|-7-7--7-7--7-7---------7-7--------------------|
E|----------------------------------------------|

G|---------------------------9-9-7-7------------|
D|----------------7-8-9--------------9-9--------|
A|-7-7--7-7--7-7---------7-7--------------------|
E|----------------------------------------------|

Parte 6 de 6
G|----------------------------------------------|
D|----------------7-8-9----------------7-8-9----|
A|-7-7--7-7--7-7---------7-7--7-7--7-7----------|
E|----------------------------------------------|

G|-------------------------------------9-7------|
D|----------------7-8-9--------------------9----|
A|-7-7--7-7--7-7---------7-7--7-7--7-7----------|
E|----------------------------------------------|

Quarta Parte:

Well, I woke up this morning, I got myself a 

Parte 1 de 4 (2x)
G|----------------------------------------------|
D|----------------7-8-9----------------7-8-9----|
A|-7-7--7-7--7-7---------7-7--7-7--7-7----------|
E|----------------------------------------------|

Parte 2 de 4
G|----------------9-7---------------------------|
D|--------------------9----------------7-8-9----|
A|-7-7--7-7--7-7---------7-7--7-7--7-7----------|
E|----------------------------------------------|

Parte 3 de 4 (2x)
G|----------------------------------------------|
D|----------------7-8-9----------------7-8-9----|
A|-7-7--7-7--7-7---------7-7--7-7--7-7----------|
E|----------------------------------------------|

Parte 4 de 4 
G|----------------------------------------------|
D|----------------7-8-9-------------------------|
A|-7-7--7-7--7-7---------7-7--5-5--4-4----------|
E|-------------------------------------7-7------|

Refrão 2:
 
Parte 1 de 2 (2x)
G|----------------------------------------------|
D|-------------4----------------4---------------|
A|-----4-4-7-7---7------4-4-7-7---7-----4-4-7-7-|
E|-5-5--------------5-5-------------5-5---------|

G|----------------------------------------------|
D|-4--------------------------------------------|
A|---7------------------------------------------|
E|----------------------------------------------|

Parte 2 de 2
G|----------------------------------------------|
D|----------------------------------------------|
A|----------------------------------------------|
E|-7-7-7--7-7-7--7-7-7--7-7-7--7--7-8-9-10-11-12|

G|----------------------------------------------|
D|----------------------------------------------|
A|-7--------------------------------------------|
E|----------------------------------------------|

Composição: The DoorsColaboração e revisão:
  • Reginaldo Costa
  • Daniel Passaia

0 comentários

    mostrar mais comentários

    Conseguiu tocar?

    0tocaram0ainda não

    Grave um vídeo tocando Roadhouse Blues e mande pra gente!

    00:00 / 00:00
    outros vídeos desta música
    repetirqualidadeautomática
    Outro vídeos desta música
      00:00 / 00:00
      automática
      Capítulos
      • Tocando a música
      • Dicas Iniciais / Equipamentos
      • Introdução
      • Primeira Parte
      • Introdução 2
      • Segunda Parte
      • Refrão
      • Solo de Guitarra
      • Terceira Parte
      • Quarta Parte
      • Segundo Refrão
      • Encerramento
      • Ficha Técnica
      OK