Cifra Club

Touch Me

The Doors

Tab de baixo: Versão 2
Standard tuning (E-A-D-G)


Intro
				Come on, come on, c'mon, c'mon now...
|----------------------|----  
|*--------------------*|----
|*------------------2-*|----
|-5-5-5--3-5-5--3-5----|-5--


Verse

|----------------------------------------------------------------|
|----------------------------------------------------------------|
|----5-------5---x2--2---2-----2-3--3-----------6--6-------------|
|-3----3---3--3-------2----2-3-------0--01-12--2----3--3-4x4-5x5-|

|-------------------------------------------------------------------|
|-------------------------------------------------------------------|
|------------------5-5-5-55-5-55-5-6--6------------9--9-------------|
|-6-6-6--66-6-66-6---------------------3--34--45--5----6--6-7x7-8x8-|

|------------------------------|
|------------------------------|
|------------------------------|
|-9-9-9-99-9-99--9-9-9-99-9-99-|


Chorus

|---------------------------------------------|-----------------|
|---4-4--4-4--4---3-3--3-3--3---4--3-4-6--4---|---4-4--4-4--4---|
|-4----4----4---4----3----3---3-------------4-|------4----4---4-|
|---------------------------------------------|-----------------|

|--------------------------------------1--------------------------------|
|-3-3--3-3--3---4-4--4-6-6--6--4-3-1--3---------------------------------|
|----3----3---3----4------6----------------4-4-4-44-4-44--4-4-4-44-4-44-|
|-----------------------------------------------------------------------|

Repeat Intro

2nd Verse (same as 1st)

2nd Chorus

|-----------------------------------------------------------|
|---4-4--4-4--4---3-3--3-3--3---4-4--4-6-6------------------|
|-4----4----4---4----3----3---3----4------4-6-4-4-4-44-4-44-|
|-----------------------------------------------------------|

|---------------------------------------------------------|
|---4-4--4-4--4---3-3--3-3--3---4-4--4-6-6--6--4-3----36--|
|------4----4---4----3----3---3----4------6--------46-----|
|---------------------------------------------------------|

|------------------------------|
|------------------------------|
|-4-4-4-44-4-44--4-4-4-44-4-44-|
|------------------------------|

|-----------------------------------------------------------------------|
|-4----4-3----3-4---4-6---6-----6---6--4-----4---3--/15-15-17-18-17-15\-|
|---------------------------4-----4--------4---4------------------------|
|-----------------------------------------------------------------------|

|------------------------------1--------------------------------|
|-4-4--4-6-6--6--4-4-3-3-1-1-x3---------------------------------|
|----4------6--------------------4-4-4-44-4-44--4-4-4-44-4-44---|
|---------------------------------------------------------------|


Outro/solo (same as intro)

Switches to:

|----------------------|---------|
|*--------------------*|---------|
|*----------------3-2-*|---------|
|-5-5-5--3-5-5--3------|-5-5-3-5-|

00:00 / 00:00
Outros vídeos desta música
Repetir
Outros vídeos desta música
Composição de Jim Morrison / John Densmore / Ray Manzarek / Robby Krieger
577 exibições

0 comentários

Ver todos os comentários
00:00 / 00:00

Cifra Club Pro

Aproveite o Cifra Club com benefícios exclusivos e sem anúncios
Cifra Club Pro
Aproveite o Cifra Club com benefícios exclusivos e sem anúncios
OK