Cifra Club

Você Pra Sempre Em Mim

Tiago Iorc

Cifra: Principal (violão e guitarra)
tom: Eb (forma dos acordes no tom de C) Capotraste na 3ª casa
[Intro]

Parte 1 de 2
E|------------------------------------------|
B|-5-----5-------5-------5--6-----6---------|
G|-----0-------0-------0--------0-----------|
D|---0-------0-------0--------0-------------|
A|-3-------3-------3------------------------|
E|--------------------------0---------------|

Parte 2 de 2
E|------------------------------------------|
B|-5-----5-------5-------5--3-----3---------|
G|-----0-------0-------0--------0-----------|
D|---3-------3-------3--------0-------------|
A|-0-------0-------0--------2---------------|
E|------------------------------------------|

[Primeira Parte]

Parte 1 de 8
   C                F2
E|------------------------------------------|
B|-1-----1-------1--------1-------1---------|
G|-----0-------0--------0-------0-----------|
D|---2-------2--------3-------3-------------|
A|-3-------3--------------------------------|
E|------------------1-------1---------------|

Parte 2 de 8
   G4(7)            Em7(13-) 
E|------------------------------------------|
B|-------1-------1--------1-------1---------|
G|-----0-------0--------0-------0-----------|
D|---3-------3--------0-------0-------------|
A|------------------------------------------|
E|-3-------3--------0-------0---------------|

Parte 3 de 8
   Am9              Am9/G 
E|------------------------------------------|
B|-------1-------1--------1-------1---------|
G|-----4-------4--------4-------4-----------|
D|---2-------2--------2-------2-------------|
A|-0-------0--------------------------------|
E|------------------3-------3---------------|

Parte 4 de 8
   F2
E|------------------------------------------|
B|-------1-------1-----1---1---1------------|
G|-----0-------0-------0---0h2-0------------|
D|---3-------3-------3-----------3----------|
A|------------------------------------------|
E|-1-------1-------1-----1------------------|

Parte 5 de 8
   C                F2
E|------------------------------------------|
B|-------1-------1--------1-------1---------|
G|-----0-------0--------0-------0-----------|
D|-0h2-------2--------3-------3-------------|
A|-3-------3--------------------------------|
E|------------------1-------1---------------|

Parte 6 de 8
   G4(7)            Em7(13-) 
E|------------------------------------------|
B|-------1-------1--------1-------1---------|
G|-----0-------0--------0-------0-----------|
D|---3-------3--------0-------0-------------|
A|------------------------------------------|
E|-3-------3--------0-------0---------------|

Parte 7 de 8
   Am9              Am9/G 
E|------------------------------------------|
B|-------1-------1--------1-------1---------|
G|-----4-------4--------4-------4-----------|
D|---2-------2--------2-------2-------------|
A|-0-------0--------------------------------|
E|------------------3-------3---------------|

Parte 8 de 8
   F2
E|------------------------------------------|
B|-------1-------1-------1------------------|
G|-----0-------0-------0---0-----0----------|
D|---3-------3-------3---------3------------|
A|------------------------------------------|
E|-1-------1-------1---------0--------------|

C       F2
  Eu achei
       G4(7)      Em7(13-)  Am9
Que seria mais fácil, esquecer
    Am9/G         F2
É ruim demais te perder
C      F2         G4(7)     Em7(13-)
  Não sei, que será de  mim
       Am9     Am9/G        F2                  
Sem você, não vou sem te dizer

[Pré-Refrão]

Parte 1 de 5
   F2               G4(7)
E|------------------------------------------|
B|-------1-------1--------1-------1---------|
G|-----0-------0--------0-------0-----------|
D|---3-------3--------3-------3-------------|
A|------------------------------------------|
E|-1-------1--------3-------3---------------|

Parte 2 de 5
   Am9
E|------------------------------------------|
B|-------1-------1-------1------------------|
G|-----4-------4-------4---------0----------|
D|---2-------2-------2---------2------------|
A|-0-------0-------0-------0----------------|
E|---------------------------0--------------|

Parte 3 de 5
   F2               G4(7)
E|------------------------------------------|
B|-------1-------1--------1-------1---------|
G|-----0-------0--------0-------0-----------|
D|---3-------3--------3-------3-------------|
A|------------------------------------------|
E|-1-------1--------3-------3---------------|

Parte 4 de 5
   Am9
E|------------------------------------------|
B|-------1-------1-------1-------1----------|
G|-----4-------4-------4-------4------------|
D|---2-------2-------2-------2--------------|
A|-0-------0-------0-------0----------------|
E|------------------------------------------|

Parte 5 de 5
   F2               G4(7)
E|------------------------------------------|
B|-------1-------1--------1-------1---------|
G|-----0-------0--------0-------0-----------|
D|---3-------3--------3-------3-------------|
A|------------------------------------------|
E|-1-------1--------3-------3---------------|

         F2   G4(7)      Am9
Quero te abraçar, te beijar
       F2  G4(7)   Am9
Quero te amar devagar
F2          G4(7)
E pra onde for vou te levar

[Refrão]

Parte 1 de 8
   C                G/B   
E|------------------------------------------|
B|-------1-------1--------1-------1---------|
G|-----0-------0--------0-------0-----------|
D|---2-------2--------0-------0-------------|
A|-3-------3--------2-------2---------------|
E|------------------------------------------|
 
Parte 2 de 8
   F2               G4(7)
E|------------------------------------------|
B|-------1-------1--------1-------1---------|
G|-----0-------0--------0-------0-----------|
D|---3-------3--------3-------3-------------|
A|------------------------------------------|
E|-1-------1--------3-------3---------------|

Parte 3 de 8
   Am9              F2
E|------------------------------------------|
B|-------1-------1--------1-------1---------|
G|-----4-------4--------0-------0-----------|
D|---2-------2--------3-------3-------------|
A|-0-------0--------------------------------|
E|------------------1-------1---------------|

Parte 4 de 8
   G4(7)
E|------------------------------------------|
B|-------1-------1-----1---1---1------------|
G|-----0-------0-------0---0h2-0------------|
D|---3-------3-------3-----------3----------|
A|------------------------------------------|
E|-3-------3-------3-----3------------------|

Parte 5 de 8
   C                G/B
E|------------------------------------------|
B|-------1-------1--------1-------1---------|
G|-----0-------0--------0-------0-----------|
D|-0h2-------2--------0-------0-------------|
A|-3-------3--------2-------2---------------|
E|------------------------------------------|

Parte 6 de 8
   F2               G4(7)
E|------------------------------------------|
B|-------1-------1--------1-------1---------|
G|-----0-------0--------0-------0-----------|
D|---3-------3--------3-------3-------------|
A|------------------------------------------|
E|-1-------1--------3-------3---------------|

Parte 7 de 8
   Am9              Em7(13-)
E|------------------------------------------|
B|-------1-------1--------1-------1---------|
G|-----4-------4--------0-------0-----------|
D|---2-------2--------0-------0-------------|
A|-0-------0--------------------------------|
E|------------------0-------0---------------|

Parte 8 de 8
   F2
E|------------------------------------------|
B|-------1-------1--------------------------|
G|-----0-------0----------------------------|
D|---3-------3------------------------------|
A|------------------------------------------|
E|-1-------1-------1------------------------|


C       G4/B  F2   G4(7) 
  Meu amo_______or 
Am9        F2             G4(7)
    Por você não vai ter fim
C       G4/B  F2    G4(7)  
  E eu se________ei 
Am9          Em7(13-)         F2
    Que vai ser pra sempre assim
[Intro]
Você pra sempre em mim

[Segunda Parte]

C        F2            G4(7)  Em7(13-)
  A lembrança, do teu jeito
    Am9    Am9/G        F2
Me faz querer te amar uma vez mais
C      F2        G4(7)  Em7(13-)
  Teu riso, meu norte
        Am9  Am9/G          F2
Na tua mão,        meu coração

[Pré-Refrão]

         F2   G4(7)      Am9
Quero te abraçar, te beijar
       F2  G4(7)   Am9
Quero te amar devagar
F2          G4(7)
E pra onde for vou te levar

[Refrão]

Parte 1 de 8
   C                G/B   
E|------------------------------------------|
B|-------1-------1--------1-------1---------|
G|-----0-------0--------0-------0-----------|
D|---2-------2--------0-------0-------------|
A|-3-------3--------2-------2---------------|
E|------------------------------------------|
 
Parte 2 de 8
   F2               G4(7)
E|------------------------------------------|
B|-------1-------1--------1-------1---------|
G|-----0-------0--------0-------0-----------|
D|---3-------3--------3-------3-------------|
A|------------------------------------------|
E|-1-------1--------3-------3---------------|

Parte 3 de 8
   Am9              F2
E|------------------------------------------|
B|-------1-------1--------1-------1---------|
G|-----4-------4--------0-------0-----------|
D|---2-------2--------3-------3-------------|
A|-0-------0--------------------------------|
E|------------------1-------1---------------|

Parte 4 de 8
   G4(7)
E|------------------------------------------|
B|-------1-------1-----1---1---1------------|
G|-----0-------0-------0---0h2-0------------|
D|---3-------3-------3-----------3----------|
A|------------------------------------------|
E|-3-------3-------3-----3------------------|

Parte 5 de 8
   C                G/B
E|------------------------------------------|
B|-------1-------1--------1-------1---------|
G|-----0-------0--------0-------0-----------|
D|-0h2-------2--------0-------0-------------|
A|-3-------3--------2-------2---------------|
E|------------------------------------------|

Parte 6 de 8
   F2               G4(7)
E|------------------------------------------|
B|-------1-------1--------1-------1---------|
G|-----0-------0--------0-------0-----------|
D|---3-------3--------3-------3-------------|
A|------------------------------------------|
E|-1-------1--------3-------3---------------|

Parte 7 de 8
   Am9              Em7(13-)
E|------------------------------------------|
B|-------1-------1--------1-------1---------|
G|-----4-------4--------0-------0-----------|
D|---2-------2--------0-------0-------------|
A|-0-------0--------------------------------|
E|------------------0-------0---------------|

Parte 8 de 8
   F2                       G4(7) 
E|------------------------------------------|
B|-------1-------1-------1--------1---------|
G|-----0-------0-------0--------0-----------|
D|---3-------3-------3--------3-------------|
A|------------------------------------------|
E|-1-------1-------1--------3--------------|

C       G4/B  F2    G4(7) 
  Meu amo________or 
Am9        F2             G4(7)
    Por você não vai ter fim
C       G4/B  F2    G4(7)  
  E eu se________ei 
Am9          Em7(13-)         F2
    Que vai ser pra sempre assim
          G4(7)     C
Você pra sempre em mim

      G4/B  F2    G4(7) 
Meu amo________or 
Am9        F2             G4(7)
    Por você não vai ter fim
C       G4/B  F2    G4(7)  
  E eu se________ei 
Am9          Em7(13-)         F2
    Que vai ser pra sempre assim
[Final]
Você pra sempre em mim

Pra sempre em mim

[Final]

Parte 1 de 3
E|------------------------------------------|
B|-5-----5-------5-------5--6-----6---------|
G|-----0-------0-------0--------0-----------|
D|---0-------0-------0--------0-------------|
A|-3-------3-------3------------------------|
E|--------------------------0---------------|

Parte 2 de 3
E|------------------------------------------|
B|-5-----5-------5-------5--3-----3---------|
G|-----0-------0-------0--------0-----------|
D|---3-------3-------3--------0-------------|
A|-0-------0-------0--------2---------------|
E|------------------------------------------|

Parte 1 de 3
E|------------------------------------------|
B|-5-----5-------5-------5--6-----6---------|
G|-----0-------0-------0--------0-----------|
D|---0-------0-------0--------0-------------|
A|-3-------3-------3------------------------|
E|--------------------------0---------------|

Parte 3 de 3
E|------------------------------------------|
B|-5-----5-------5-------5--3---------------|
G|-----0-------0-------0--------------------|
D|---3-------3-------3----------------------|
A|-0-------0-------0--------2---------------|
E|------------------------------------------|
00:00 / 00:00
Outros vídeos desta música
Repetir
Outros vídeos desta música
Composição de Tiago Iorc
Colaboração e revisão:
  • Caico Antunes
  • Thiago Almeida
7.458 exibições
  • Simplificar cifra
    • ½ Tom
    • A
    • Bb
    • B
    • C
    • Db
    • D
    • Eb
    • E
    • F
    • F#
    • G
    • Ab
  • Adicionar à lista

    0 comentários

    Ver todos os comentários

    Conseguiu tocar?

    5 Tocaram 2 Ainda não

    Grave um vídeo tocando Você Pra Sempre Em Mim e nos envie!

    00:00 / 00:00
    Capítulos
    • Tocando a Música
    • Apresentação / Equipamentos
    • Tocando Introdução
    • Ensinando Introdução - Parte 1 de 2
    • Ensinando Introdução - Parte 2 de 2
    • Acordes da Primeira Parte
    • Tocando a Primeira Parte
    • Ensinando Primeira Parte - Parte 1 de 8
    • Ensinando Primeira Parte - Parte 2 de 8
    • Ensinando Primeira Parte - Parte 3 de 8
    • Ensinando Primeira Parte - Parte 4 de 8
    • Ensinando Primeira Parte - Parte 5 de 8
    • Ensinando Primeira Parte - Parte 6 de 8
    • Ensinando Primeira Parte - Parte 7 de 8
    • Ensinando Primeira Parte - Parte 8 de 8
    • Tocando Pré-Refrão
    • Ensinando Pré-Refrão - Parte 1 de 5
    • Ensinando Pré-Refrão - Parte 2 de 5
    • Ensinando Pré-Refrão - Parte 3 de 5
    • Ensinando Pré-Refrão - Parte 4 de 5
    • Ensinando Pré-Refrão - Parte 5 de 5
    • Acorde do Refrão
    • Tocando Refrão
    • Ensinando Refrão - Parte 1 de 8
    • Ensinando Refrão - Parte 2 de 8
    • Ensinando Refrão - Parte 3 de 8
    • Ensinando Refrão - Parte 4 de 8
    • Ensinando Refrão - Parte 5 de 8
    • Ensinando Refrão - Parte 6 de 8
    • Ensinando Refrão - Parte 7 de 8
    • Ensinando Refrão - Parte 8 de 8
    • Tocando Segundo Refrão e Parte Final
    • Ensinando Segundo Refrão
    • Tocando Final da Música
    • Tocando Final da Música - Parte 1 de 3
    • Tocando Final da Música - Parte 2 de 3
    • Tocando Final da Música - Parte 3 de 3
    • Encerramento

    Cifra Club Pro

    Aproveite o Cifra Club com benefícios exclusivos e sem anúncios
    Cifra Club Pro
    Aproveite o Cifra Club com benefícios exclusivos e sem anúncios
    OK