Cifra Club

Aprenda

Homem Primata

Titãs

Tab de baixo: Principal
 Riff da intro :

G:---------------------10------------------------------------------------------------8--------
D:---------------11-13----13-11------------------------------------------------8--11-----11-8-
A:-11------11-13----------------13-11-----13-11---11----------------------8-11----------------
E:----------------------------------------------13---13-11-13-9------9-11---------------------



Depois De fazer td isso o baixo  fica em F# ( corda 3 casa 9 ) e C# ( corda 2 casa 11)


Base da Música 

G:--------------------------------------
D:-------3-------3----------------------
A:---4-4---4---4------------------------
E:------------------2-2---4-464---------

Refrão :

G:-------------------
D:-------------------
A:-4-----------------  4X
E:---6-4-2-4-6-------     


Aí vem akela parte : '' Eu me perdi..na selva de pedras ''
ela é assim

G:--------------------------------------------|-----------------
D:--------------------------------------------|-----------------
A:--------------------------------------------|-4-4-------------
E:-2---2-2--2-2----4---4-4--4-4----2-2---4-4--|------2-2--4-4-----
                                              | essa parte faz  4x


Depois disso vem akela parte : '' I am a cave man...a young man....'' q eh assim :


G:---------------------------3----------------------------------------------------------
D:--4-4---4-4---4-4-4-4-4--6--6-3-----------------------------3-------------------------
A:------4-----4-------------------6--4-4---4-4---4-4-4-4-4--6---6-4---------------------
E:---------------------------------------4-----4---------------------6------------------


Depois desse riff o baixo faz uma vez : F# ( corda 4 casa 2) G# ( corda 4 casa 4) pra depois cair
nesse riff...eh bom ouvir bem a música pq esse riff eh o mais chato :

G:--------------------------------------------------------------------------
D:--------------------------------------------------------------------------    
A:-1-1-----1-0-3-1-1-----1-0-3-1-1---1-0-3-1-1-0-3-4-3-1-0------------------     2X
E:-----1-2-----------1-2----------1-2--------------------------------------


Depois cai em F# ( corda 4 casa 2 ) e G# ( Corda 4 casa 4 ) e volta na base
 Ae é só ouvi a musika e ve q q faz em cada parte


_______________________________________________________
Contribuição: Leandro Rodrigues(Tonhoband@bol.com.br)
Composição de Ciro Pessoa / Marcelo Fromer / Nando Reis / Sérgio Britto
16.894 exibições

0 comentários

Ver todos os comentários
00:00 / 00:00
Outros vídeos desta música
Repetir Qualidade Automático
Outros vídeos desta música
00:00 / 00:00
Automático

Cifra Club Pro

Aproveite o Cifra Club com benefícios exclusivos e sem anúncios
Cifra Club Pro
Aproveite o Cifra Club com benefícios exclusivos e sem anúncios
OK