Cifra Club

Aprenda

Família

Titãs

Cifra: Principal (violão e guitarra)
tom: D
[Intro] D  G

(Guitarra 1)

E|----------------------------------------------------|
B|----------------------------------------------------|
G|----------------------------------------------------|
D|----------------------------------------------------| (6x)
A|-----5---------------7-5-----2-5-5-5-5-5------------|
E|-5-7---2-2-2-2-2-5-7----------------------3-3-------|

(Guitarra 2)

E|-2--------------------------------------------------|
B|-----3----------------------------------------------|
G|---------0------------------0--4p2--4p2-------------|
D|--------------4-----------4-------------------------| (2x)
A|----------------------------------------------------|
E|----------------------------------------------------|

    D        G              D         G
E|--5--5--------------------5--5----------------------|
B|--7--7-----8--8-----------7--7------8--8------------|
G|--7--7-----7--7-----------7--7------7--7------------|
D|-----------9--9---------------------9--9------------|
A|----------------------------------------------------|
E|----------------------------------------------------|

   A
Família, família
   D           G
Papai, mamãe, titia
 A
Família, família
   D          G
Almoça junto todo dia
 D             G
Nunca perde essa mania

      D                           G
Mas quando a filha quer fugir de casa
    D                      G
Precisa descolar um ganha-pão
 D                       G
Filha de família se não casa
   D                          G
Papai, mamãe, não dão nenhum tostão

   A
Família ê
   G
Familia á
   D    G
Família

   A
Família ê
   G
Familia á
   D    G
Família

   A
Família, família
   D            G
Vovô, vovó, sobrinha
     A
Família, família
 D           G
Janta junto todo dia
 D             G
Nunca perde essa mania

 D                       G
Mas quando o nenê fica doente, uo oh
    D                     G
Procura uma farmácia de plantão
    D                 G
O choro do nenê estridente, uo oh
   D                        G
Assim não dá pra ver televisão

   A
Família ê
   G
Familia á
   D    G
Família

   A
Família ê
   G
Familia á
   D    G
Família

( D  G )
( D  G )
( D  G )
( D  G )

   A
Família, família
    D              G
Cachorro, gato, galinha
   A
Família, família
   D        G
Vive junto todo dia
 D             G
Nunca perde essa mania

   D                      G
A mãe morre de medo de barata
   D                       G
O pai vive com medo de ladrão
   D                     G
Jogaram inseticida pela casa
   D                      G
Botaram um cadeado no portão

   A
Família ê
   G
Familia á
   D    G
Família

   A
Família ê
   G
Familia á
   D    G
Família

   A
Família ê
   G
Familia á
   D    G
Família

   A
Família ê
   G
Familia á
   D    G
Família

[Final] A  G
        A  G

E|----------------------------------------|
B|----------------------------------------|
G|--------------5h7-6---------------------|
D|---7-7-7-5-----------7-7-7-5------------|
A|-----------7-----------------7----------|
E|----------------------------------------|
Composição de Arnaldo Antunes / Toni Bellotto
232.456 exibições
    • ½ Tom
    • A
    • Bb
    • B
    • C
    • Db
    • D
    • Eb
    • E
    • F
    • F#
    • G
    • Ab
  • Adicionar à lista

    0 comentários

    Ver todos os comentários
    00:00 / 00:00
    Outros vídeos desta música
    Repetir Qualidade Automático
    Outros vídeos desta música
    00:00 / 00:00
    Automático

    Cifra Club Pro

    Aproveite o Cifra Club com benefícios exclusivos e sem anúncios
    Cifra Club Pro
    Aproveite o Cifra Club com benefícios exclusivos e sem anúncios
    OK