Cifra Club

Polícia

Titãs

Tab de baixo: Principal
exibições 23.052
[Introdução]

Parte 1 
G|----------------------------------------------|
D|----------------------------------------------|
A|-14----------0-0--10/14-14-14----------0-0--0-|
E|----10-10-10------------------10-10-10--------|

G|----------------------------------------------|
D|----------------------------------------------|
A|-10/14-14-14----------0-0--10/14-14-14--------|
E|-------------10-10-10------------------10-10--|

G|----------------------------------------------|
D|----------------------------------------------|
A|----0--0-0------------------------------------|
E|-10-------------------------------------------|


[Primeira parte]
 
Dizem que ela existe...

Parte 1 
G|----------------------------------------------|
D|----------------------------------------------|
A|-10/14-14-14----------0-0-10/14-14-14---------|
E|-------------10-10-10-----------------10-10---|

G|----------------------------------------------|
D|----------------------------------------------|
A|----0-0-0-----0-10/14-14-14-----------0-0-----|
E|-10--------0----------------10-10-10----------|

G|----------------------------------------------|
D|----------------------------------------------|
A|-10/14-14-14----------0-0--0------------------|
E|-------------10-10-10---------12h14-----------|


[Refrão]

Polícia!...

Parte 1 
G|----------------------------------------------|
D|----------------------------------------------|
A|-14--12-12--14-14-14----------0-0-------------|
E|---------------------10-10-10-----------------|

G|----------------------------------------------|
D|----------------------------------------------|
A|-14--12-12--14-14-14----------0--0-0----------|
E|---------------------10-10-10--------12h14----|


[Segunda parte]

Dizem pra você...

Parte 1 
G|----------------------------------------------|
D|----------------------------------------------|
A|-14----------0-0--10/14-14-14----------0-0-0--|
E|----10-10-10------------------10-10-10--------|

G|----------------------------------------------|
D|----------------------------------------------|
A|---0--10/14-14-14-----------0-0---------------|
E|-0----------------10-10-10--------------------|

G|----------------------------------------------|
D|----------------------------------------------|
A|-10/14-14-14----------0-----------------------|
E|-------------10-10-10-------------------------|


[Refrão 2]

Polícia!...

Parte 1 
G|----------------------------------------------|
D|----------------------------------------------|
A|-14--12-12--14-14-14----------0-0-------------|
E|---------------------10-10-10-----------------|

G|----------------------------------------------|
D|----------------------------------------------|
A|-14--12-12--14-14-14----------0--0-0----------|
E|---------------------10-10-10-----------------|


[Terceira parte]

Parte 1 

   T.................................
G|----------------------------------------------|
D|----------------------------------------------|
A|----------------------------------------------|
E|-0-0-0-0--0-0-0-0--0-0-0-0--0-0-0-0-----------|

   T.................................
G|----------------------------------------------|
D|----------------------------------------------|
A|-0-0-0-0--0-0-0-0--0-0-0-0--0-0--0-0-0-0------|
E|----------------------------------------------|


[Introdução 2]

Parte 1 
G|----------------------------------------------|
D|----------------------------------------------|
A|-/14----------0-0--10/14-14-14----------0-0-0-|
E|-----10-10-10------------------10-10-10-------|

G|----------------------------------------------|
D|----------------------------------------------|
A|-10/14-14-14----------0-0--10/14-14-14--------|
E|-------------10-10-10------------------10-10--|

G|----------------------------------------------|
D|----------------------------------------------|
A|----0-0-0--0-0--------------------------------|
E|-10-------------------------------------------|

[Quarta parte]
 
Dizem que ela existe...

Parte 1 de 2 (3x)
G|----------------------------------------------|
D|----------------------------------------------|
A|-10/14-14-14-----------0--0-0---0-------------|
E|-------------10-10-10---------0---------------|

Parte 2 de 2
G|----------------------------------------------|
D|----------------------------------------------|
A|-10/14-14-14----------0-----------------------|
E|-------------10-10-10-------------------------|


[Refrão 3]

Polícia!...

Parte 1 
G|----------------------------------------------|
D|----------------------------------------------|
A|-14--12-12--14-14-14----------0-0-------------|
E|---------------------10-10-10-----------------|

G|----------------------------------------------|
D|----------------------------------------------|
A|-14--12-12--14-14-14----------0--0-0----------|
E|---------------------10-10-10--------12h14----|


[Quinta parte]

Dizem pra você...

Parte 1 de 2 (3x)
G|----------------------------------------------|
D|----------------------------------------------|
A|-10/14-14-14-----------0--0-0---0-------------|
E|-------------10-10-10---------0---------------|

Parte 2 de 2
G|----------------------------------------------|
D|----------------------------------------------|
A|-10/14-14-14----------0-----------------------|
E|-------------10-10-10-------------------------|


[Refrão 4]

Polícia!...

Parte 1 
G|----------------------------------------------|
D|----------------------------------------------|
A|-14--12-12--14-14-14----------0-0-------------|
E|---------------------10-10-10-----------------|

G|----------------------------------------------|
D|----------------------------------------------|
A|-14--12-12--14-14-14----------0--0-0----------|
E|---------------------10-10-10-----------------|

G|----------------------------------------------|
D|----------------------------------------------|
A|-14-14-14-14--14-14-14-14---------------------|
E|--------------------------0-------------------|
Composição: Tony Bellotto Colaboração e revisão:
  • Reginaldo Costa
  • Junior
  • fxgjh

0 comentários

mostrar mais comentários

Conseguiu tocar?

8 tocaram 0 ainda não

Grave um vídeo tocando Polícia e mande pra gente!

00:00 / 00:00
outros vídeos desta música
repetir qualidade Automático
Outro vídeos desta música
00:00 / 00:00
Automático
Capítulos
  • Tocando a música
  • Apresentação / Equipamentos
  • TAB - Introdução
  • TAB - Primeira parte
  • TAB - Refrão
  • TAB - Segunda parte
  • TAB - Refrão 2
  • TAB - Terceira parte
  • TAB - Quarta parte - Parte 1 de 2
  • TAB - Quarta parte - Parte 2 de 2
  • TAB - Refrão 4
  • Encerramento
OK