Cifra Club

Aprenda

Mudar o Mundo

Tragicômico

Cifra: Principal (violão e guitarra)
tom: F
       D4 D
Quero mudar o mundo
 D4 D             A/C#
Cruzar os céus e nada temer
 F#7                  G
Séculos passam num segundo
         D/F#
No brilho de um sorriso
 Em7        A4    A
Tem a força que me guia
Mudar minha mente
 D4 D        D4 D      A/C#
Com você eu vou voar sem esquecer
F#7                   G
Que pra sempre vou te amar
 D/F#       Em7 A4 A
E o futuro vai brilhar
    D4
É o paraíso


Base: D4 D A/C# F#7 G D/F# Em7 A4 A


           G5 F#5 E5 D5 E5 B5 A5
Solo 1: e|------------------------
        B|------------------------
        G|--12--11--9--7--9--4-2--
        D|--12--11--9--7--9--4-2--
        A|--10--9---7--5--7--2-0--
        E|------------------------

        e|------------------------
        B|------------------------
        G|------------------------
        D|------------------------
        A|------4-----------------
        E|--6-------3---2---0-----


F                    Cm
Você correu sem saber a direção
     Bb              Dm
E se perdeu na multidão
        Bb       F
Deu pra ver bem no seu olhar
Bb       Cm            F
O medo de não acordar
                        Cm
Eu já nem sei mais no que acreditar
         Bb               Dm
Não quero ver, e nem escutar
Bb          F
E viver sem o seu amor
Bb     Gm      C7
Já não é mais opção
       F                   Cm
Ainda lembro de quando te vi
           Am          Dm
Sabia que algo nascia ali
      Bb                F
A vida ganha um novo sentido
             Bb
Uma nova emoção
      Dm
Um novo colorido
        D4 D
Quero mudar o mundo
D4 D        A/C#
Só você me faz acreditar
F#7                           G
Que nunca mais eu vou me enganar
       D/F#              Em7   A4   A
Se estiver contigo vamos pra qualquer lugar
Mudar minha mente
D4 D      D4 D           A/C#
Com você eu vou voar sem esquecer
    F#7               G
Que pra sempre vou te amar
D/F#      Em7 A4 A
O futuro vai chegar
        D
É o paraíso



Solo 2:   e|-------------3-3-3-3-3-3-3-----------------|
          B|-------------3-3-3-3-3-3-3-----------------|
          G|--7--------------------------7-5-7---------|
          D|--7--------------------------7-5-7---------|
          A|--5--------------------------7-5-7---------|
          E|------1-2-3--------------------------1-2-3-|

          e|--------------------------3-3-3-3-3-3-3----------------|
          B|--------------------------3-3-3-3-3-3-3----------------|
          G|----------------7------------------------7-5-7---------|
          D|---3-3-3-3-3-3--7------------------------7-5-7---------|
          A|----------------5------------------------7-5-7---------|
          E|-------------------1-2-3------------------------1-2-3--|


Ponte: Apenas faça o ritmo normal sem acorde especifico, porém, abafado.

F                    Cm
Sempre em busca de uma nova razão
     Bb                 Dm
Atravessando a escuridão
     Bb     F
De repente, a luz do amor
Bb     Gm      C7
Ilumina o coração
       F                Cm
Tudo parece se transformar
           Bb           Dm
A água, o fogo, a terra e o ar
        Bb              F
A vida ganha um novo sentido,
         Bb              Dm
Uma nova emoção, Um novo colorido
D4 D
Quero mudar o mundo
D4 D         A/C#
Caminhar sem olhar pra trás
F#7               G
Com você eu encontrei a paz
          D/F#
Nas asas de um sonho
        Em7  A4   A
Não vou me perder jamais
Mudar minha mente
D4 D          D4 D
Um novo mundo à nossa frente
         A/C#       F#7            G
Nada vai me fazer parar se você me amar
D/C#            Em7 A4 A
O mundo inteiro vai mudar
        D4 D
É o paraíso.
Compositor não encontrado.
Colaboração e revisão:
  • Felipe Machado
2.933 exibições
    • ½ Tom
    • A
    • Bb
    • B
    • C
    • Db
    • D
    • Eb
    • E
    • F
    • F#
    • G
    • Ab
  • Adicionar à lista

    0 comentários

    Ver todos os comentários

    Conseguiu tocar?

    1 Tocaram 1 Ainda não

    Grave um vídeo tocando Mudar o Mundo e nos envie!

    00:00 / 00:00
    Outros vídeos desta música
    Repetir Qualidade Automático
    Outros vídeos desta música
    00:00 / 00:00
    Automático

    Cifra Club Pro

    Aproveite o Cifra Club com benefícios exclusivos e sem anúncios
    Cifra Club Pro
    Aproveite o Cifra Club com benefícios exclusivos e sem anúncios
    OK