Cifra Club

I Fall Down

U2

Tab de baixo: Principal

Standard Tuning (E,A,D,G) 

Intro - Paly After Piano & Guitar
G|-----------------|-----------------|-----------------|-----------------|
D|*----------------|-----------------|-----------------|----------------*|
A|*----------------|-----------------|-----------------|----------------*|
E|-5-#--5-#--5-5-0-|-5-#--5-#--5-5-0-|-5-#--5-#--5-5-0-|-5-#--5-#--5-5-0-|

First Verse

G|-----------------|-----------------|-----------------|-----------------|
D|*----------------|-----------------|-----------------|----------------*|
A|*----------------|-----------------|-----------------|----------------*|
E|-5-#--5-#--5-5-0-|-5-#--5-#--5-5-0-|-5-#--5-#--5-5-0-|-5-#--5-#--5-5-0-|

G|-----------------|-----------------|-----------------|-----------------|
D|*----------------|-----------------|-----------------|----------------*|
A|*----------------|-----------------|-----------------|----------------*|
E|-5-#--5-#--5-5-0-|-5-#--5-#--5-5-0-|-5-#--5-#--5-5-0-|-5-#--5-#--5-5-0-|

Pre-Chorus

G|-----------------|-----------------|-----------------|-----------------|
D|*----------------|-----------------|-----------------|----------------*|
A|*----------------|-----------------|-----------------|----------------*|
E|-5-5-5-5-5-5-5-5-|-5-5-5-5-5-5-5-5-|-5-5-5-5-5-5-5-5-|-5-5-5-5-5-5-5-5-|

G|-----------------|-----------------|
D|*----------------|----------------*|
A|*----------------|----------------*|
E|-5-5-5-5-5-5-5-5-|-5-5-5-5-5-5-5-5-|

Chorus

G|-----------------|-----------------|
D|*----------------|-3-3-3-3-3-2----*|
A|*----------------|-------------5-3*|
E|-1-1-1-1-1-1-1-\\-|----------------|

Break

G|-----------------|-----------------|-----------------|-----------------|
D|*----------------|-----------------|-----------------|----------------*|
A|*----------------|-----------------|-----------------|----------------*|
E|-5-#--5-#--5-5-0-|-5-#--5-#--5-5-0-|-5-#--5-#--5-5-0-|-5-#--5-#--5-5-0-|

Second Verse

G|-----------------|-----------------|-----------------|-----------------|
D|*----------------|-----------------|-----------------|----------------*|
A|*----------------|-----------------|-----------------|----------------*|
E|-5-#--5-#--5-5-0-|-5-#--5-#--5-5-0-|-5-#--5-#--5-5-0-|-5-#--5-#--5-5-0-|

G|-----------------|-----------------|-----------------|-----------------|
D|*----------------|-----------------|-----------------|----------------*|
A|*----------------|-----------------|-----------------|----------------*|
E|-5-#--5-#--5-5-0-|-5-#--5-#--5-5-0-|-5-#--5-#--5-5-0-|-5-#--5-#--5-5-0-|

Pre-Chorus
G|-----------------|-----------------|-----------------|-----------------|
D|*----------------|-----------------|-----------------|----------------*|
A|*----------------|-----------------|-----------------|----------------*|
E|-5-5-5-5-5-5-5-5-|-5-5-5-5-5-5-5-5-|-5-5-5-5-5-5-5-5-|-5-5-5-5-5-5-5-5-|

G|-----------------|-----------------|
D|*----------------|----------------*|
A|*----------------|----------------*|
E|-5-5-5-5-5-5-5-5-|-5-5-5-5-5-5-5-5-|

Chorus

G|-----------------|------------------|-----------------|-----------------|
D|*----------------|------------------|-----------------|----------------*|
A|*----------------|------------------|-----------------|----------------*|
E|-1-1-1-1-1-1-1-1-|-1-1-1-1-1-1-1-1\\|-5-5-5-5-5-5-5-5-|-5-5-5-5-5-5-5-5-|

G|-----------------|-----------------|
D|*3-3-3-3-3-3-3-3-|-3-3-2-2--------*|
A|*----------------|---------5-5-3-3*|
E|-----------------|-----------------|

Break

G|-----------------|-----------------|-----------------|-----------------|
D|*----------------|-----------------|-----------------|----------------*|
A|*----------------|-----------------|-----------------|----------------*|
E|-5-#--5-#--5-5-0-|-5-#--5-#--5-5-0-|-5-#--5-#--5-5-0-|-5-#--5-#--5-5-0-|

G|-----------------|-----------------|
D|*----------------|----------------*|
A|*----------------|----------------*|
E|-5-#--5-#--5-5-0-|-5-#--5-#--5-5-0-|

Third Verse

G|-----------------|-----------------|-----------------|-----------------|
D|*----------------|-----------------|-----------------|----------------*|
A|*----------------|-----------------|-----------------|----------------*|
E|-5-#--5-#--5-5-0-|-5-#--5-#--5-5-0-|-5-#--5-#--5-5-0-|-5-#--5-#--5-5-0-|

G|-----------------|-----------------|-----------------|-----------------|
D|*----------------|-----------------|-----------------|----------------*|
A|*----------------|-----------------|-----------------|----------------*|
E|-5-#--5-#--5-5-0-|-5-#--5-#--5-5-0-|-5-#--5-#--5-5-0-|-5-#--5-#--5-5-0-|

Pre-Chorus

G|-----------------|-----------------|-----------------|-----------------|
D|*----------------|-----------------|-----------------|----------------*|
A|*----------------|-----------------|-----------------|----------------*|
E|-5-5-5-5-5-5-5-5-|-5-5-5-5-5-5-5-5-|-5-5-5-5-5-5-5-5-|-5-5-5-5-5-5-5-5-|

G|-----------------|-----------------|
D|*----------------|----------------*|
A|*----------------|----------------*|
E|-5-5-5-5-5-5-5-5-|-5-5-5-5-5-5-5-5-|

Chorus

G|-----------------|-----------------|-----------------|------------------|
D|*----------------|-----------------|-----------------|-----------------*|
A|*----------------|-----------------|-----------------|-----------------*|
E|-1-1-1-1-1-1-1-1-|-1-1-1-1-1-1-1-1\\|-5-5-5-5-5-5-5-5-|-5-5-5-5-5-5-5-5-|

G|-----------------|-----------------|
D|*3-3-3-3-3-3-3-3-|-3-3-2-2--------*|
A|*----------------|---------5-5-3-3*|
E|-----------------|-----------------|

Break

G|-----------------|-----------------|
D|*----------------|-----------------|
A|*----------------|-----------------|
E|-5-#--5-#--5-5-0-|-5-#--5-#--5-5-0-|

Interlude

G|-----------------|-----------------|-----------------|-----------------|
D|*----------------|-----------------|-----------------|----------------*|
A|*----------------|-----------------|-----------------|----------------*|
E|--5--------------|-----------------|-----------------|--5---5-------5--|

G|-----------------|-----------------|-----------------|-----------------|
D|*----------------|-----------------|-----------------|----------------*|
A|*----------------|-----------------|-----------------|----------------*|
E|--5--------------|-----5-----5-----|--5--------------|--5---5-------5--|

G|-----------------|-----------------|-----------------|-----------------|
D|*----------------|-----------------|-----------------|----------------*|
A|*----------------|-----------------|-----------------|----------------*|
E|--5---5----------|--5---5-------5--|--5---5----------|--5---5---5---5--|

G|-----------------|-----------------|-----------------|-----------------|
D|*----------------|-----------------|-----------------|----------------*|
A|*----------------|-----------------|-----------------|----------------*|
E|--5---5----------|--5---5-------5--|--5---5----------|--5---5---5---5--|

Chorus

G|-----------------|------------------|-----------------|-----------------|
D|*----------------|------------------|-----------------|----------------*|
A|*----------------|------------------|-----------------|----------------*|
E|-1-1-1-1-1-1-1-1-|-1-1-1-1-1-1-1-1\\|-5-5-5-5-5-5-5-5-|-5-5-5-5-5-5-5-5-|

G|-----------------|-----------------|-----------------|-----------------|
D|*----------------|-----------------|-----------------|----------------*|
A|*8-8-8-8-8-8-8-8-|-8-8-8-8-8-8-8-8-|-----------------|----------------*|
E|-----------------|-----------------|-5-5-5-5-5-5-5-5-|-5-5-5-5-5-5-5-5-|

G|-----------------|------------------|-----------------|-----------------|
D|*----------------|------------------|-----------------|----------------*|
A|*----------------|------------------|-----------------|----------------*|
E|-1-1-1-1-1-1-1-1-|-1-1-1-1-1-1-1-1\\|-5-5-5-5-5-5-5-5-|-5-5-5-5-5-5-5-5-|

G|-----------------|-----------------|
D|*----------------|-----------------|
A|*8-8-8-8-8-8-8-8-|-8-8-8-8-8-8-8-8-|
E|-----------------|-----------------|

Break

G|-----------------|-----------------|
D|*----------------|-----------------|
A|*-7--7~------7---|--5--5~------5---|
E|-----------------|-----------------|

Outro

G|-----------------|-----------------|-----------------|-------14--------|
D|*----7--------7--|----7----------7-|--------------7--|-----------------|
A|*----------------|-----------------|-----------------|-\\12------------|
E|-5---------------|-5-----5---------|-5--5------------|-----------------|

Ending

G|-----------------|
D|*----------------|
A|*10h12~----------|
E|-----------------|
exibições 329

0 comentários

mostrar mais comentários

Conseguiu tocar?

0 tocaram 0 ainda não

Grave um vídeo tocando I Fall Down e mande pra gente!

00:00 / 00:00
outros vídeos desta música
repetir qualidade Automático
Outros vídeos desta música
00:00 / 00:00
Automático
OK