Cifra Club

Aprenda

Unknown Caller

U2

Cifra: Versão 2 (violão e guitarra)
Já pensou em usar uma coleção de roupas do Cifra Club? Responda as perguntas abaixo e nos ajude nessa missão! →
tom: C
E|-----10---------10---------10---------10-----------------------------------|
B|---8----8-----8----8-----8----8-----8----10--------------------------------|
G|-0----------0----------0----------0----------------------------------------|
D|---------------------------------------------------------------------------|
A|---------------------------------------------------------------------------|
E|---------------------------------------------------------------------------|

E|-----10-------10----------10------10---------------------------------------|
B|---8----8--------10-----8----8-------10------------------------------------|
G|-0----------0---------9----------------------------------------------------|
D|---------------------------------------------------------------------------|
A|---------------------------------------------------------------------------|
E|---------------------------------------------------------------------------|

E|-----10-------10----------10-------10--------------------------------------|
B|---8----8---8----10-----8----8---8----10-----------------------------------|
G|-0--------------------0----------------------------------------------------|
D|---------------------------------------------------------------------------|
A|---------------------------------------------------------------------------|
E|---------------------------------------------------------------------------|

E|-----10---------10----------10--------10-----------------------------------|
B|---8----8-----8----10-----8----10---8----10--------------------------------|
G|-0----------0-----------0--------------------------------------------------|
D|---------------------------------------------------------------------------|
A|---------------------------------------------------------------------------|
E|---------------------------------------------------------------------------|
                     Sunshine, Sunshine
E|-----10---------10----------10-------10------------------------------------|
B|---8----8-----8----10-----8----8---8----10---------------------------------|
G|-0----------0-----------0--------------------------------------------------|
D|---------------------------------------------------------------------------|
A|---------------------------------------------------------------------------|
E|---------------------------------------------------------------------------|
                     Sunshine, Sunshine
E|-----10---------10----------10-------10------------------------------------|
B|---8----8-----8----10-----8----8---8----10---------------------------------|
G|-0----------0-----------0--------------------------------------------------|
D|---------------------------------------------------------------------------|
A|---------------------------------------------------------------------------|
E|---------------------------------------------------------------------------|

Refrão:
E|-----10---------10---------------------------------------------------------|
B|---8----8-----8----8-------------------------------------------------------|
G|-0----------0--------------------------------------------------------------|
D|---------------------------------------------------------------------------|
A|---------------------------------------------------------------------------|
E|---------------------------------------------------------------------------|

E|--------10------10---------------------------------------------------------|
B|------8-------8------------------------------------------------------------|
G|---10------10-------10-----------------------------------------------------|
D|---------------------------------------------------------------------------|
A|---------------------------------------------------------------------------|
E|---------------------------------------------------------------------------|
  Oh oh oh oh oh oh        Oh oh oh oh oh oh
E|-------13-------13--------------12-------12--------------------------------|
B|----15-------15--------------13-------13-----------------------------------|
G|-14-------14-------14-----14-------14-------14-----------------------------|
D|---------------------------------------------------------------------------|
A|---------------------------------------------------------------------------|
E|---------------------------------------------------------------------------|

E|--------8------8-----------------------------------------------------------|
B|-----8-------8------------8-----8--8--------8------------------------------|
G|-8h9-------9------9-------9h10--9--9---9h10---10---------------------------|
D|---------------------------------------------------------------------------|
A|---------------------------------------------------------------------------|
E|---------------------------------------------------------------------------|

E|-----10---------10---------------------------------------------------------|
B|---8----8-----8----8-------------------------------------------------------|
G|-0----------0--------------------------------------------------------------|
D|---------------------------------------------------------------------------|
A|---------------------------------------------------------------------------|
E|---------------------------------------------------------------------------|

E|--------10------10---------------------------------------------------------|
B|------8-------8------------------------------------------------------------|
G|---10------10-------10-----------------------------------------------------|
D|---------------------------------------------------------------------------|
A|---------------------------------------------------------------------------|
E|---------------------------------------------------------------------------|
  Oh oh oh oh oh oh        Oh oh oh oh oh oh
E|-------13-------13--------------12-------12--------------------------------|
B|----15-------15--------------13-------13-----------------------------------|
G|-14-------14-------14-----14-------14-------14-----------------------------|
D|---------------------------------------------------------------------------|
A|---------------------------------------------------------------------------|
E|---------------------------------------------------------------------------|

E|--------8------8-----------------------------------------------------------|
B|-----8-------8------------8-----8--8---8--8--8-----------------------------|
G|-8h9-------9------9-------9h10--9--9---9--9--9-----------------------------|
D|---------------------------------------------------------------------------|
A|---------------------------------------------------------------------------|
E|---------------------------------------------------------------------------|

Verso:
 I was lost             between the midnight
E|---------------------------------------------------------------------------|
B|-10--10-10--8h10---10--10-10--8h10-----------------------------------------|
G|-9---9--9---9------9---9--9---9--------------------------------------------|
D|---------------------------------------------------------------------------|
A|---------------------------------------------------------------------------|
E|---------------------------------------------------------------------------|
 and the dawning
E|---------------------------------------------------------------------------|
B|-10--10-10--10h8----10--10-10--10h8----------------------------------------|
G|-10--10-10--10------9---9--9---9-------------------------------------------|
D|---------------------------------------------------------------------------|
A|---------------------------------------------------------------------------|
E|---------------------------------------------------------------------------|
 In a place             of no consequence
E|---------------------------------------------------------------------------|
B|-10--10-10--8h10---10--10-10--8h10-----------------------------------------|
G|-9---9--9---9------9---9--9---9--------------------------------------------|
D|---------------------------------------------------------------------------|
A|---------------------------------------------------------------------------|
E|---------------------------------------------------------------------------|
 or company
E|---------------------------------------------------------------------------|
B|-10--10-10--10h8----10--10-10--10h8----------------------------------------|
G|-10--10-10--10------10--10-10--10------------------------------------------|
D|---------------------------------------------------------------------------|
A|---------------------------------------------------------------------------|
E|---------------------------------------------------------------------------|
 (3:33)             when the numbers fell
E|---------------------------------------------------------------------------|
B|-10--10-10--8h10---10--10-10--8h10-----------------------------------------|
G|-9---9--9---9------9---9--9---9--------------------------------------------|
D|---------------------------------------------------------------------------|
A|---------------------------------------------------------------------------|
E|---------------------------------------------------------------------------|
 off the clock face
E|---------------------------------------------------------------------------|
B|-10--10-10--10h8----10--10-10--10h8----------------------------------------|
G|-10--10-10--10------9---9--9---9-------------------------------------------|
D|---------------------------------------------------------------------------|
A|---------------------------------------------------------------------------|
E|---------------------------------------------------------------------------|
 Speed dialling         with no signal
E|---------------------------------------------------------------------------|
B|-10--10-10--8h10---10--10-10--8h10-----------------------------------------|
G|-9---9--9---9------9---9--9---9--------------------------------------------|
D|---------------------------------------------------------------------------|
A|---------------------------------------------------------------------------|
E|---------------------------------------------------------------------------|
 at all
E|---------------------------------------------------------------------------|
B|-10--10-10--10h8----10--10-10--10h8----------------------------------------|
G|-10--10-10--10------10--10-10--10------------------------------------------|
D|---------------------------------------------------------------------------|
A|---------------------------------------------------------------------------|
E|---------------------------------------------------------------------------|

Refrão:
 Go,         shout it out
E|-----10---------10---------------------------------------------------------|
B|---8----8-----8----8-------------------------------------------------------|
G|-0----------0--------------------------------------------------------------|
D|---------------------------------------------------------------------------|
A|---------------------------------------------------------------------------|
E|---------------------------------------------------------------------------|
              Rise up
E|-------10------10----------------------------------------------------------|
B|-----8-------8-------------------------------------------------------------|
G|--10------10-------10------------------------------------------------------|
D|---------------------------------------------------------------------------|
A|---------------------------------------------------------------------------|
E|---------------------------------------------------------------------------|
  Oh oh oh oh oh oh        Oh oh oh oh oh oh
E|-------13-------13--------------12-------12--------------------------------|
B|----15-------15--------------13-------13-----------------------------------|
G|-14-------14-------14-----14-------14-------14-----------------------------|
D|---------------------------------------------------------------------------|
A|---------------------------------------------------------------------------|
E|---------------------------------------------------------------------------|
            Escape yourself        and gravity
E|--------8------8-----------------------------------------------------------|
B|-----8-------8------------8-----8--8---8--8-8------------------------------|
G|-8h9-------9------9-------9h10--9--9---10-9-10-----------------------------|
D|---------------------------------------------------------------------------|
A|---------------------------------------------------------------------------|
E|---------------------------------------------------------------------------|
e  Hear me, cease to speak that I may speak
E|-----10----------10--------------------------------------------------------|
B|---8----10-----8----8------------------------------------------------------|
G|-0-----------0-------------------------------------------------------------|
D|---------------------------------------------------------------------------|
A|---------------------------------------------------------------------------|
E|---------------------------------------------------------------------------|
           Shush now
E|-------10--------10--------------------------------------------------------|
B|-----8---------8-----------------------------------------------------------|
G|--10--------10-------10----------------------------------------------------|
D|---------------------------------------------------------------------------|
A|---------------------------------------------------------------------------|
E|---------------------------------------------------------------------------|
  Oh oh oh oh oh oh        Oh oh oh oh oh oh
E|-------13-------13--------------12-------12--------------------------------|
B|----15-------15--------------13-------13-----------------------------------|
G|-14-------14-------14-----14-------14-------14-----------------------------|
D|---------------------------------------------------------------------------|
A|---------------------------------------------------------------------------|
E|---------------------------------------------------------------------------|
 Force quit                and move to trash
E|--------8------8-----------------------------------------------------------|
B|-----8-------8------------8-----8--8--------8------------------------------|
G|-8h9-------9------9-------9h10--9--9---9h10---9----------------------------|
D|---------------------------------------------------------------------------|
A|---------------------------------------------------------------------------|
E|---------------------------------------------------------------------------|

Verso:
 I was right there at the top of the bottom
E|---------------------------------------------------------------------------|
B|---------------------------------------------------------------------------|
G|---------------------------------------------------------------------------|
D|---------------------------------------------------------------------------|
A|---------------------------------------------------------------------------|
E|--5-----3-----1-----0------------------------------------------------------|
 On the edge of the known universe where I wanted to be
E|---------------------------------------------------------------------------|
B|---------------------------------------------------------------------------|
G|---------------------------------------------------------------------------|
D|---------------------------------------------------------------------------|
A|---------------------------------------------------------------------------|
E|--5-----3-----1-----1-1-1-3-3-5--------------------------------------------|
 I had driven to the scene of the accident
E|---------------------------------------------------------------------------|
B|---------------------------------------------------------------------------|
G|---------------------------------------------------------------------------|
D|---------------------------------------------------------------------------|
A|---------------------------------------------------------------------------|
E|---5---7-8---10-12--12h13--12--10--12----10\-------------------------------|
And I sat there, waiting for me
E|---------------------------------------------------------------------------|
B|---------------------------------------------------------------------------|
G|---------------------------------------------------------------------------|
D|---------------------------------------------------------------------------|
A|---------------------------------------------------------------------------|
E|--5---7-8---10-12--12h13--12--13--12--13-12-13-----------------------------|

Refrão:
 Restart and re-boot yourself
E|-----10---------10---------------------------------------------------------|
B|---8----8-----8----8-------------------------------------------------------|
G|-0----------0--------------------------------------------------------------|
D|---------------------------------------------------------------------------|
A|---------------------------------------------------------------------------|
E|---------------------------------------------------------------------------|
              You're free to go
E|-------10------10----------------------------------------------------------|
B|-----8-------8-------------------------------------------------------------|
G|--10------10-------10------------------------------------------------------|
D|---------------------------------------------------------------------------|
A|---------------------------------------------------------------------------|
E|---------------------------------------------------------------------------|
  Oh oh oh oh oh oh        Oh oh oh oh oh oh
E|-------13-------13--------------12-------12--------------------------------|
B|----15-------15--------------13-------13-----------------------------------|
G|-14-------14-------14-----14-------14-------14-----------------------------|
D|---------------------------------------------------------------------------|
A|---------------------------------------------------------------------------|
E|---------------------------------------------------------------------------|
            Shout for joy          if you get the chance
E|--------8------8-----------------------------------------------------------|
B|-----8-------8------------8-----8--8---8--8-8------------------------------|
G|-8h9-------9------9-------9h10--9--9---10-9-10-----------------------------|
D|---------------------------------------------------------------------------|
A|---------------------------------------------------------------------------|
E|---------------------------------------------------------------------------|
  Password, you enter here
E|-----10----------10--------------------------------------------------------|
B|---8----8------8----8------------------------------------------------------|
G|-0-----------0-------------------------------------------------------------|
D|---------------------------------------------------------------------------|
A|---------------------------------------------------------------------------|
E|---------------------------------------------------------------------------|
            right now
E|-------10--------10--------------------------------------------------------|
B|-----8---------8-----------------------------------------------------------|
G|--10--------10-------10----------------------------------------------------|
D|---------------------------------------------------------------------------|
A|---------------------------------------------------------------------------|
E|---------------------------------------------------------------------------|
  Oh oh oh oh oh oh        Oh oh oh oh oh oh
E|-------13-------13--------------12-------12--------------------------------|
B|----15-------15--------------13-------13-----------------------------------|
G|-14-------14-------14-----14-------14-------14-----------------------------|
D|---------------------------------------------------------------------------|
A|---------------------------------------------------------------------------|
E|---------------------------------------------------------------------------|
 You know your name                so punch it in
E|--------8------8-----------------------------------------------------------|
B|-----8-------8------------8-----8--8--------8------------------------------|
G|-8h9-------9------9-------9h10--9--9---9h10---9----------------------------|
D|---------------------------------------------------------------------------|
A|---------------------------------------------------------------------------|
E|---------------------------------------------------------------------------|
  Hear me, cease to speak that I may speak
E|-----10----------10--------------------------------------------------------|
B|---8----8------8----8------------------------------------------------------|
G|-0-----------0-------------------------------------------------------------|
D|---------------------------------------------------------------------------|
A|---------------------------------------------------------------------------|
E|---------------------------------------------------------------------------|
            Shush now
E|-------10--------10--------------------------------------------------------|
B|-----8---------8-----------------------------------------------------------|
G|--10--------10-------10----------------------------------------------------|
D|---------------------------------------------------------------------------|
A|---------------------------------------------------------------------------|
E|---------------------------------------------------------------------------|
  Oh oh oh oh oh oh        Oh oh oh oh oh oh
E|-------13-------13--------------12-------12--------------------------------|
B|----15-------15--------------13-------13-----------------------------------|
G|-14-------14-------14-----14-------14-------14-----------------------------|
D|---------------------------------------------------------------------------|
A|---------------------------------------------------------------------------|
E|---------------------------------------------------------------------------|
 Then don't move           or say a thing
E|--------8------8-----------------------------------------------------------|
B|-----8-------8------------8-----8--8--------8------------------------------|
G|-8h9-------9------9-------9h10--9--9---9h10---9----------------------------|
D|---------------------------------------------------------------------------|
A|---------------------------------------------------------------------------|
E|---------------------------------------------------------------------------|

Ponte:
     Am
E|--0------------------------------------------------------------------------|
B|--1-----1-----0-----1------------------------------------------------------|
G|--2------------------------------------------------------------------------|
D|--2------------------------------------------------------------------------|
A|--0------------------------------------------------------------------------|
E|---------------------------------------------------------------------------|
(Softly)
E|-----10---------10---------------------------------------------------------|
B|---8----8-----8----8-------------------------------------------------------|
G|-0----------0--------------------------------------------------------------|
D|---------------------------------------------------------------------------|
A|---------------------------------------------------------------------------|
E|---------------------------------------------------------------------------|

E|-------10------10----------------------------------------------------------|
B|-----8-------8-------------------------------------------------------------|
G|--10------10-------10------------------------------------------------------|
D|---------------------------------------------------------------------------|
A|---------------------------------------------------------------------------|
E|---------------------------------------------------------------------------|

E|-------13-------13--------------12-------12--------------------------------|
B|----15-------15--------------13-------13-----------------------------------|
G|-14-------14-------14-----14-------14-------14-----------------------------|
D|---------------------------------------------------------------------------|
A|---------------------------------------------------------------------------|
E|---------------------------------------------------------------------------|

E|--------8------8-----------------------------------------------------------|
B|-----8-------8------------8-----8--8--8--8--8-8----------------------------|
G|-8h9-------9------9-------9h10--10-10-10-10-9-9----------------------------|
D|---------------------------------------------------------------------------|
A|---------------------------------------------------------------------------|
E|---------------------------------------------------------------------------|

Solo:
E|---------------------------------------------------------------------------|
B|--15-15-15-15-15-15--15-15--13--12\----------------------------------------|
G|---------------------------------------------------------------------------|
D|---------------------------------------------------------------------------|
A|---------------------------------------------------------------------------|
E|---------------------------------------------------------------------------|

E|-----------------------13-12-13-13-13-13-----------------------------------|
B|--15-15-15-15-15-15-15-----------------------------------------------------|
G|---------------------------------------------------------------------------|
D|---------------------------------------------------------------------------|
A|---------------------------------------------------------------------------|
E|---------------------------------------------------------------------------|

E|-13-12--------------------------13-12--------------------------------------|
B|-------15--13--15-15b17--15-13--------15--13-13----------------------------|
G|---------------------------------------------------------------------------|
D|---------------------------------------------------------------------------|
A|---------------------------------------------------------------------------|
E|---------------------------------------------------------------------------|

E|------------------15----15-------15----15---15-----------------------------|
B|--12-13-15--12-15----15----15--13--13-----12--12---------------------------|
G|---------------------------------------------------------------------------|
D|---------------------------------------------------------------------------|
A|---------------------------------------------------------------------------|
E|---------------------------------------------------------------------------|

E|------------15----15----15----17----17----17----17-------------------------|
B|---15-15/17----17----17----17----17----17----17----17----------------------|
G|---------------------------------------------------------------------------|
D|---------------------------------------------------------------------------|
A|---------------------------------------------------------------------------|
E|---------------------------------------------------------------------------|

E|---------------------------------------------------------------------------|
B|-17-17-15-15-15-15-13-13-13-13-12--10--8-----------------------------------|
G|---------------------------------------------------------------------------|
D|---------------------------------------------------------------------------|
A|---------------------------------------------------------------------------|
E|---------------------------------------------------------------------------|

E|---------------------------------------------------------------------------|
B|-----10-8--------------------10-8------------------------------------------|
G|---7------7--5-4-5-4-2-0---7-----------------------------------------------|
D|---------------------------------------------------------------------------|
A|---------------------------------------------------------------------------|
E|---------------------------------------------------------------------------|

E|---------------------------------------------------------------------------|
B|---------------------------------------------------------------------------|
G|--2-2-4-4-5-5-7-7--9--9b10r9-7--9-7--9--9b10r9-7--5--7---------------------|
D|--0-0-0-0-0-0-0-0----------------------------------------------------------|
A|---------------------------------------------------------------------------|
E|---------------------------------------------------------------------------|

E|---------------------------------------------------------------------------|
B|---------------------------------------------------------------------------|
G|--9--9b10r9--7---9p7--5-5--------------------------------------------------|
D|---------------------------------------------------------------------------|
A|---------------------------------------------------------------------------|
E|---------------------------------------------------------------------------|

E|---------------------------------------------------------------------------|
B|-----8--------8---------8---------8----------------------------------------|
G|-------7---------7---------7---------7-------------------------------------|
D|--0--------0---------0---------0---------0-(let ring)----------------------|
A|---------------------------------------------------------------------------|
E|---------------------------------------------------------------------------|

Composição de Brian Eno / Danny Lanois / U2
Colaboração e revisão:
  • felipe ximenes
215 exibições
    • ½ Tom
    • A
    • Bb
    • B
    • C
    • Db
    • D
    • Eb
    • E
    • F
    • F#
    • G
    • Ab
  • Adicionar à lista

    0 comentários

    Ver todos os comentários

    Conseguiu tocar?

    0 Tocaram 0 Ainda não

    Grave um vídeo tocando Unknown Caller e nos envie!

    00:00 / 00:00
    Outros vídeos desta música
    Repetir Qualidade Automático
    Outros vídeos desta música
    00:00 / 00:00
    Automático

    Cifra Club Pro

    Aproveite o Cifra Club com benefícios exclusivos e sem anúncios
    Cifra Club Pro
    Aproveite o Cifra Club com benefícios exclusivos e sem anúncios
    OK