Cifra Club

The Last Fight

Velvet Revolver

Cifra: Principal (violão e guitarra)
tom: D
Riff da Introdução e do Refrão:

E|------------12--------------12-------------12------|
B|---------15----15--------12-------12----------15---|
G|------14----------14--13-------13-------13---------|
D|--12---------------------------------14------------|
A|---------------------------------------------------|
E|---------------------------------------------------|

E|-------------12------------12/14---12/14------12/14--13--12--10----|
B|----12-15----------15----------------------------------------10----|
G|-12-------12----12---------12/14---12/14------12/14--13--12--11----|
D|----------------------12-------------------------------------------|
A|-------------------------------------------------------------------|
E|-------------------------------------------------------------------|

E|---------12--------------12-------------12------|
B|------15----15--------12-------12----------15---|
G|---14----------14--13-------13-------13---------|
D|----------------------------------14------------|
A|------------------------------------------------|
E|------------------------------------------------|

E|-------------12------------12/14---12/14----|
B|----12-15----------15-----------------------|
G|-12-------12----12----12---12/14---12/14----|
D|--------------------------------------------|
A|--------------------------------------------|
E|--------------------------------------------|

 A                            Bm
  Time feels like I've been back in jail
              G                      D
  Like when I was doin' time in the can
    A                 Bm
  Spend all night on bended knee
           G                       D
  Just to beg for something to believe
   E                G                       G4          G
  Left home with a pack of clothes without a family tree

 D                        E
 This fight could be the last fight
     G             D
 No giving and no winning
 D                     E
 One time could be the only time
         G                    D    C
 Should we decide to end the misery

Interlúdio: A5  B5  G5  D5
E|-------------------------------------------------------------------------------|
B|------------------------------------------------------------------2h3h2--------|
G|-0h2~------2---2h4-------------------------------------------2h4---------------|
D|-------2/4---4-----2h4----2h4--2----------------2/4--2/4~--4-------------4-2~~-|
A|----------------------------------5--2h5--2-5-2--------------------------------|
E|-------------------------------------------------------------------------------|

 A                      Bm
 Time heals all of the burned out bridges
              G                    D
 Filled with nothing more than misery
    A                      Bm
 I wear the mask of the embattled son
            G                      D
 Trying to beg for somethnig to believe
 E                 G                       G4          G
 Left home with a pack of clothes without a family tree

 D                        E
 This fight could be the last fight
     G             D
 No giving and no winning
 D                     E
 One time could be the only time
         G                    D    C
 Should we decide to end the misery

E                            G
 Break the chains of featherweights and giants
E                      G
 With disdain for everlasting liars
E                             C        
 They'll refrain when we spit out the fire
            D       E       G        G4    G
 And start living, living, living my friend

Solo: D  E  G  D
E|-------------------------------------------------------------------|
B|-------------------------------------10-10-7-----------------------|
G|------------7-----7--9-7---7--9b-------------9rb-7-9-7----9--7--6--|
D|------7-7-9---9----------9-----------------------------------------|
A|--7p9--------------------------------------------------------------|
E|-------------------------------------------------------------------|

E|------------------------------------------10p8--------------14-17b-|
B|--------------------7-8-10-7-------------------7/15---12/15--------|
G|---7-9-7---7-9-7-9b----------9--7--7--5-7--------------------------|
D|-9-------9---------------------------------------------------------|
A|-------------------------------------------------------------------|
E|-------------------------------------------------------------------|

E|-15p14----------17-------------------------------------------------|
B|-------17-15-------17rb-17rb-17rb-17rb---15-17-------------15-17b--|
G|-------------16--------------------------------16-19----17---------|
D|-----------------------------------------------------19------------|
A|-------------------------------------------------------------------|
E|-------------------------------------------------------------------|

E|-----------------13-13-13-13-13--|
B|--17b--15----15--15-15-15-15-15--|
G|----------16---------------------|
D|---------------------------------|
A|---------------------------------|
E|---------------------------------|

 D                        E
 This fight could be the last fight
     G             D
 No giving and no winning
 D                     E                  (Refrão 3x)
 One time could be the only time
         G                    D
 Should we decide to end the misery...
00:00 / 00:00
Outros vídeos desta música
Repetir
Outros vídeos desta música
Composição de Dave Kushner / Duff McKagan / Matt Sorum / Scott Weiland / Slash
Colaboração e revisão:
36.665 exibições
    • ½ Tom
    • A
    • Bb
    • B
    • C
    • Db
    • D
    • Eb
    • E
    • F
    • F#
    • G
    • Ab
  • Adicionar à lista

    0 comentários

    Ver todos os comentários

    Entre para oCifra Club PRO

    Tenha acesso a benefícios exclusivos no App e no Site

    • Chega de anúncios

    • Prioridade de compra em lançamentos

    • Mais recursos no app do Afinador

    • Atendimento Prioritário

    • Descontos nos produtos Cifra Club

    • Ajude a produzir mais conteúdo

    00:00 / 00:00

    Cifra Club Pro

    Aproveite o Cifra Club com benefícios exclusivos e sem anúncios
    Cifra Club Pro
    Aproveite o Cifra Club com benefícios exclusivos e sem anúncios
    OK