Notificações Amigos pendentes

      Velvet Revolver

      Messages

      23.306 exibições
      Tom: F
      Intro: Dm  Bb  F  A
             Bb  F  C  Em  G
      Intro:
      
            Dm                Bb                 F                 A              Bb
      E|-------------------------------------------------------------------------------
      B|--------------------------------------------2----------------------------------
      G|-7----5h7-----5\3--3--3------2-----2--5--2-----0--0h2h5p2---5/7----------------
      D|---------------------------3---------------------------------------------------
      A|-------------------------------------------------------------------------------
      E|-------------------------------------------------------------------------------
      
      
                          F                  C                  Em      G
      E|------------------------------------------------------------------------------|
      B|------------------------------------------------------------------------------|
      G|---10-/9--7h9--7/5--5-0--0h2h5/7/5---9p7p5h9--5----9--9~---12--12~------------|
      D|------------------------------------------------------------------------------|
      A|------------------------------------------------------------------------------|
      E|------------------------------------------------------------------------------|
      
      
      Riff:
      
            Am                   F
      E|--0--7br---3h5p0------0--7br---3h5p1----|
      B|----------------------------------------|
      G|----------------------------------------|
      D|----------------------------------------|
      A|----------------------------------------|
      E|----------------------------------------|
      
      
            Dm                              G           C
      E|---------------------------------------------------------|
      B|---3h5/6/8---3h6p5h6---3h5h6-----10b------5p3h5~---------|
      G|---------------------------------------------------------|
      D|---------------------------------------------------------|
      A|---------------------------------------------------------|
      E|---------------------------------------------------------|
      
      
       Am
          And you're so long
       F
          Nice to see you,
       Dm                        G         C
          Won't be long before I come back home,
       Am
          When the plane lands,
       F
          Will you reach me,
       Dm                         G   C
          Will you call me on the telephone?
      
        F                                      C
          Tell my son I wish I never yelled at him yesterday
          Cause everythings changed
        G               F
          Radar signal seeking you,
                      C
          But finding nothing at all, hey.
        G                             F
          But they'll hardly call the calvary
        C
          There's something happening.
      Riff:
      
            Am                     F
      E|---0--7br---3h5p0-------0--7br---3h5p1---|
      B|-----------------------------------------|
      G|-----------------------------------------|
      D|-----------------------------------------|
      A|-----------------------------------------|
      E|-----------------------------------------|
      
      
            Dm                              G           C
      E|----------------------------------------------------|
      B|---3h5/6/8---3h6p5h6---3h5h6------10b-----5p3h5~----|
      G|----------------------------------------------------|
      D|----------------------------------------------------|
      A|----------------------------------------------------|
      E|----------------------------------------------------|
      
      
       Am
          Goodbye mother,
       F
          Tell my daughter,
       Dm
          Have to leave,
                     G   C
          Get of the telephone
       Am
          Theres a problem,
       F
          Sinking feeling,
       Dm                        G      C
          Heros died and plastic on the run
      
        F                                      C
          Tell my son I wish I Never yelled at him yesterday
          Cause everythings changed,
        G               F              C
          And you, you gave me all you had, hey.
        G            F                 C
          I hope someday you will be happy,
          Without me.
      Riff:
      
            Am                   F
      E|---0--7br---3h5p0-----0--7br---3h5p1----|
      B|----------------------------------------|
      G|----------------------------------------|
      D|----------------------------------------|
      A|----------------------------------------|
      E|----------------------------------------|
      
      
            Dm                                G           C
      E|-------------------------------------------------------|
      B|----3h5/6/8----3h6p5h6----3h5h6------10b----5p3h5~-----|
      G|-------------------------------------------------------|
      D|-------------------------------------------------------|
      A|-------------------------------------------------------|
      E|-------------------------------------------------------|
      
      
      Riff 2:
      
         Dm                Bb                 F                 A              Bb
      E|------------------------------------------------------------------------------|
      B|--------------------------------------------2---------------------------------|
      G|-7----5h7-----5\3--3--3------2-----2--5--2-----0--0h2h5p2---5/7---------------|
      D|---------------------------3--------------------------------------------------|
      A|------------------------------------------------------------------------------|
      E|------------------------------------------------------------------------------|
      
      
                          F                  C                  Em      G
      E|------------------------------------------------------------------------------|
      B|------------------------------------------------------------------------------|
      G|---10-/9--7h9--7/5--5-0--0h2h5/7/5---9p7p5h9--5----9--9~---12--12~------------|
      D|------------------------------------------------------------------------------|
      A|------------------------------------------------------------------------------|
      E|------------------------------------------------------------------------------|
      
      
       Dm        Bb                         F
      Lost in a world that's quickly going by,
                A                                  Bb
      You were there so strengthened you knew the ground,
                      F                         C  (junto com o riff 2 - guitarra)
      Angels and the demons fight to save the lives,
                     Em     G
      While all the others cry
      Solo:
      
            Am          F                Dm                             G
      E|-0-7br--3/5--0-7br--5/8-8p7p5/3/10--10p8p7h10---8-7-8br--7h8p7h8---------|
      B|-------------------------------------------------------------------------|
      G|-------------------------------------------------------------------------|
      D|-------------------------------------------------------------------------|
      A|-------------------------------------------------------------------------|
      E|-------------------------------------------------------------------------|
      
      
          C        F                                       C   C
      E|-12br-10p8p5--13/12--10p8p5--7br--3h5p0----------------|
      B|-----------------------------------------3h5-3\1--0h1-1|
      G|-------------------------------------------------------|
      D|-------------------------------------------------------|
      A|-------------------------------------------------------|
      E|-------------------------------------------------------|
      
      
      G                   F                   C
        As for you, you made my life worth living,
      G              F              C
        I pray one day you will de happy,
        Without me.
      
      Goodbye,
      Goodbye.
      Solo Final:
      
                     G                                     F                   C
      E|------------------------------------------------------13-----12-------------------------12-|
      B|-12h13----15-13-12h13-15---13-12h13----13--12------12-------------15--13--12h13------------|
      G|------------------------------------------------14------------------------------12---------|
      D|-------------------------------------------------------------------------------------------|
      A|-------------------------------------------------------------------------------------------|
      E|-------------------------------------------------------------------------------------------|
      
      
                                          G                                     F               C
      E|--------------------|------------------------------------------------------13----12--------|
      B|-15--13---12h13--13-|-12h13----15-13-12h13-15---13-12h13----13--12------12-----------15\13-|
      G|--------------------|------------------------------------------------14--------------------|
      D|--------------------|----------------------------------------------------------------------|
      A|--------------------|----------------------------------------------------------------------|
      E|--------------------|----------------------------------------------------------------------|
      
      

      Comentários 2

      140 .
      • moraesmatheus moraesmatheus: Em 26/08/2013 21:01

        Essa musica e legal d+, e muito facil

      • _esterco_ _esterco_: Em 22/10/2012 01:11

        Essa música é muito dahora! Fais uma video aula ae galera!!!!!!!!!!

      140 cancelar

      conseguiu tocar?

      covers

      Grave um vídeo tocando Messages e mande pra gente!

      Ex.: http://www.youtube.com/watch?v=0IvSvIwGdwk
      ver covers de outras músicas »
      0:00 / 0:00

      Capítulos

        4 versões de Guitar Proformatodownloadscontribuição
        play/pausefechar subir/descer velocidade
        6ª corda E5ª corda A4ª corda D3ª corda G2ª corda B1ª corda E
          acordes
          publicidade
          fechar
          ok