Cifra Club

Loura de Ouro

Victor e Leo

Cifra: Principal (violão e guitarra)
tom: E (forma dos acordes no tom de C) Capotraste na 4ª casa
(capo 4ª casa)

(intro) C G Am F C G Am F G

  C                             G
Em frente à minha casa mora uma loura
           Am                   F
Eu passo o dia da janela só pra vê-la
 C                       G
Eu, com minha mente sonhadora
             Am                       F
Sonho que um dia em meus braços possa tê-la
G             E           Am
Ela, com seu jeito encantador
 F                       G          C  G
Desperta em mim um fogo vivo de amor

 C                     G
Esse amor ainda é todo meu
         Am                     F
Nem na família eu deixei alguém saber
 C                       G
Finjo então que nada aconteceu
         Am                        F
Ela vai ser pra quem primeiro vou dizer
G             E            Am
Se eu contar e ela não gostar
F                       G          C  G
Por essa loura muito tempo vou chorar

(refrão)
  C          G            Am
Mas se ela gostar e me quiser
           F               C             G
Não posso crer em outro alguém em minha vida
 C           G            Am           F
Seu olhar de céu, olhos de mel, cabelo fogo
          G              C
Loura de ouro, minha querida

(solo)
E|-7-7-5-5-4-4---------4----------------------------------------|
B|-------------7-7-5-7---7-----5-5---7^-5---5-------------------|
G|---------------------------6-----6------6---6-4-6---6-6-------|
D|--------------------------------------------------------------|
A|--------------------------------------------------------------|
E|--------------------------------------------------------------|

                                                     F   G
E|-7-7-5-5-4-4---------4----------9-12-12-9-12-12-9--5---7-----|
B|-------------7-7-5-7---7---------------------------5---0-----|
G|---------------------------------------------------6---0-----|
D|---------------------------------------------------7---0-----|
A|---------------------------------------------------7---6-----|
E|---------------------------------------------------5---7-----|

 C                     G
Esse amor ainda é todo meu
         Am                     F
Nem na família eu deixei alguém saber
 C                       G
Finjo então que nada aconteceu
         Am                       F
Ela vai ser pra quem primeiro vou dizer
G        E                  Am
Se eu contar e ela não gostar
            F         G            C   G
Por essa loura muito tempo vou chorar

(refrão 2x)
 C          G            Am
Mas se ela gostar e me quiser
           F               C             G
Não posso crer em outro alguém em minha vida
 C           G            Am           F
Seu olhar de céu, olhos de mel, cabelo fogo
          G               C
Loura de ouro, minha querida

                                                        F   G
E|-7-7-5-5-4-4---------4-------9--12--12--9--12--12--9--5---7-----|
B|-------------7-7-5-7---7------------------------------5---0-----|
G|------------------------------------------------------6---0-----|
D|------------------------------------------------------7---0-----|
A|------------------------------------------------------7---6-----|
E|------------------------------------------------------5---7-----|
00:00 / 00:00
Outros vídeos desta música
Repetir
Outros vídeos desta música
Composição de Victor Chaves
Colaboração e revisão:
  • Júnior Senna
  • Matteus Souza
  • Leonar
50.511 exibições
    • ½ Tom
    • A
    • Bb
    • B
    • C
    • Db
    • D
    • Eb
    • E
    • F
    • F#
    • G
    • Ab
  • Adicionar à lista

    0 comentários

    Ver todos os comentários

    Conseguiu tocar?

    12 Tocaram 0 Ainda não

    Grave um vídeo tocando Loura de Ouro e nos envie!

    Entre para oCifra Club PRO

    Tenha acesso a benefícios exclusivos no App e no Site

    • Chega de anúncios

    • Prioridade de compra em lançamentos

    • Mais recursos no app do Afinador

    • Atendimento Prioritário

    • Descontos nos produtos Cifra Club

    • Ajude a produzir mais conteúdo

    00:00 / 00:00

    Cifra Club Pro

    Aproveite o Cifra Club com benefícios exclusivos e sem anúncios
    Cifra Club Pro
    Aproveite o Cifra Club com benefícios exclusivos e sem anúncios
    OK