Cifra Club

Tempo de Amor

Victor e Leo

Cifra: Principal (violão e guitarra)
Tom: C
Intro:
                             F         Am                   F
E|---------------------------------1h0---------------------------------------------------|
B|-------------------------------------1----3/5------------------------------------------|
G|------------------0--0h2---------------2-------2-2----------------0--0h2--0h2-0h2------|
D|-------------0h2---------------------------------------------0h2-----------------------|
A|------0h2/3-----------------------------------------------0h2--------------------------|
E|-0----------------------------------------------------0--------------------------------|

   Am                          G
E|---3-3----------------------3--|
B|--------1-1---1-3-3/5-5~----3--|
G|------------2---------------4--|
D|----------------------------5--|
A|----------------------------5--|
E|----------------------------3--|

             F
É tempo de amor
               Am
E o vento se acalma
            F
O céu fica azul
               Am    G
Por dentro da alma

             F
Te sinto na paz
             Am
Que tem nas campinas
             F
Nas águas puras, claras
                Am       G
Que brotam das minas

Refrão 2x:

           F
É tempo de amor
            Am
De curar a dor
            F
Luz na escuridão
     Fm              C
Seu beijo cheio de paixão

Solo:
               F                   Am                             F                                           Am
E|-----------------------------3-0-----------------------------------------------------------------------------------------|
B|-1p0---3/5--5-5---------------------1---3/5------------------------1p0---------3-3/5-5-5/8-8/10-10-10/12-13--------------|
G|-------------------2-2----------------2------2-0h2-0h2--2/4-------------2-0-2--------------------------------------------|
D|-------------------------------------------------------------0h2---------------------------------------------------------|
A|-------------------------------------------------------------------------------------------------------------------------|
E|-------------------------------------------------------------------------------------------------------------------------|
 
                   G
E|-------------------------------------------------------------------------------------------------------------------------|
B|--13--12--10--8----------------------------------------------------------------------------------------------------------|
G|-------------------------------------------------------------------------------------------------------------------------|
D|--12--12--10--9----------------------------------------------------------------------------------------------------------|
A|-------------------------------------------------------------------------------------------------------------------------|
E|-------------------------------------------------------------------------------------------------------------------------|


            F
Te sinto na paz
             Am
Que tem nas campinas
             F
Nas águas puras, claras
                Am       G
Que brotam das minas

Refrão 4x:

           F
É tempo de amor
            Am
De curar a dor
            F
Luz na escuridão
     Fm              C
Seu beijo cheio de paixão
exibições 53.352
Acordes para:
    Composição: Victor Chaves Colaboração e revisão:

    0 comentários

    mostrar mais comentários

    Conseguiu tocar?

    10 tocaram 3 ainda não

    Grave um vídeo tocando Tempo de Amor e mande pra gente!

    00:00 / 00:00
    outros vídeos desta música
    repetir qualidade Automático
    Outros vídeos desta música
    00:00 / 00:00
    Automático
    OK