Cifra Club

Im Your Boogie Man

White Zombie

Cifra: Principal (violão e guitarra)
Selo Cifra Club: esta cifra foi revisada para atender aos critérios oficiais da nossa Equipe de Qualidade.
tom: Db
C#  G#  C#  F#  A#  D#

[Intro] 
  with Wah pedal
E|-------------------------|
B|--x----x--x-------x--x---|
G|-(5/7)-x--x-x-x-x-x--x---|
D|--x----x--x-x-x-x-x--x---|
A|--x----x--x-------x--x---|
E|-------------------------|


[Intro pt2 / Verse]                            [Verse Lead gtr w/ Wah]

D|-----------------------------------------| |------------------------------|
A|-----------------------------------------| |------------------------------|
F#|:---------------------------------------:||:--7--7--7--5----4---5--4-5--:|
E|---0~--3---5---6-5-3--0-0-3---5---6-5-3--| |------------------------------|
B|---0~--3---5---6-5-3--0-0-3---5---6-5-3--| |------------------------------|
G|---0~--3---5---6-5-3--0-0-3---5---6-5-3--| |------------------------------|


[Pre-Chorus]
                       slow slide
E|---------------------------------|
B|---------------------------------|
G|--8--8--8--8-8-8-----------------|
D|--x--x--x--x-x-x--(13)\-\-\(0)---|
A|--6--6--6--6-6-6--(13)\-\-\(0)---|
E|------------------(13)\-\-\(0)---|


[Chorus] 
"im your boogieman..."

D|---------------------------------------|
A|---------------------------------------|
F#|:-------------------------------------:|
E|----0---------0----------3--3--3/5-----|
B|----0---12\---0---12\----3--3--3/5-----|
G|----0---12\---0---12\----3--3--3/5-----|


[Verse 2]                                    [Lead w/ Wah pedal]

D|----------------------------------------| |------------------------|
A|----------------------------------------| |------------------------|
F#|:--------------------------------------:||:-7-7-7-5---4---5--4-4-:|
E|--0---3---5---6-5-3--0-0-3---5---6-5-3--| |------------------------|
B|--0---3---5---6-5-3--0-0-3---5---6-5-3--| |------------------------|
G|--0---3---5---6-5-3--0-0-3---5---6-5-3--| |------------------------|


[Pre Chorus 2]                        [Chorus 2]

E|---------------------------------| |---------------------------------|
B|---------------------------------| |---------------------------------|
G|--8--8--8--8-8-8-----------------| |:-------------------------------:|
D|--x--x--x--x-x-x--(13)\-\-\(0)---| |--0--------0--------3--3--3/5----|
A|--6--6--6--6-6-6--(13)\-\-\(0)---| |--0--12\---0--12\---3--3--3/5----|
E|------------------(13)\-\-\(0)---| |--0--12\---0--12\---3--3--3/5----|


 [Bridge]             [Pre-Chorus 3]             [Chorus 3]
     NO GTR
d#|--Vocals-------||------------------------||-------------------------------|
E|---| Drums-------||------------------------||-------------------------------|
B|----| Bass-------||-8--8--8--8-8-8---------||:-----------------------------:|
G|---------------| |-x--x--x--x-x-x-13\-\---||--0-------0--------3--3--3/5---|
D|---------------| |-6--6--6--6-6-6-13\-\---||--0--12\--0--12\---3--3--3/5---|
A|---------------| |----------------13\-\---||--0--12\--0--12\---3--3--3/5---|


   [Main Riff / Outro]                          [Lead Outro]               [Last Pt Outro Lead w/ Wah]      

D|------------------------------------------| |--------------------------||-------------------------|
A|------------------------------------------| |--6--6---4-----6--8-------||-------------------------|
F#|:----------------------------------------:||:-8b-8b--6b~---8b-10b~---:||:-7-7-7-5---4---5--4-4--:|
E|-(0)-0---3---5---6-5-3--0-0-3--5--6-5-3---| |--------------------------||-------------------------|
B|-(0)-0---3---5---6-5-3--0-0-3--5--6-5-3---| |--------------------------||-------------------------|
G|-(0)-0---3---5---6-5-3--0-0-3--5--6-5-3---| |--------------------------||-------------------------|


*******************************************************
p = pull off   h = hammer on
/ = slide up   \ = slide down
~ = let ring   x = dead note (palm mute w fret hand)
b = bend      (#)= ghost note  
|:--:| = repeat bar
*******************************************************
Outros vídeos desta música
    6 exibições
      • ½ Tom
      • A
      • Bb
      • B
      • C
      • Db
      • D
      • Eb
      • E
      • F
      • F#
      • G
      • Ab
    • Adicionar à lista

    Afinação da cifra

    Afinador online

      0 comentários

      Ver todos os comentários

      Entre para o Cifra Club PRO

      Tenha acesso a benefícios exclusivos no App e no Site

      • Chega de anúncios

      • Badges exclusivas

      • Mais recursos no app do Afinador

      • Atendimento Prioritário

      • Aumente seu limite de lista

      • Ajude a produzir mais conteúdo

      Cifra Club Pro

      Aproveite o Cifra Club com benefícios exclusivos e sem anúncios
      Cifra Club Pro
      Aproveite o Cifra Club com benefícios exclusivos e sem anúncios
      OK