Cifra Club

King Of Souls

White Zombie

Cifra: Principal (violão e guitarra)
Selo Cifra Club: esta cifra foi revisada para atender aos critérios oficiais da nossa Equipe de Qualidade.
tom: Eb
INTRO
E|-------------------------------------------------------------------------|
B|-------------------------------------------------------------------------|
G|------------------PM-----------------------------------------------------|
D|-----------------====----====-------------------------------------9------|
A|---9-9-7-7-7-8-9-10-9-==-10-9--====---9-9-7-7-7-8-9--------7-9-10--------|
E|---7-7-5-5-5-6-7------10-------10-9---7-7-5-5-5-6-7-7-9-10---------------|

E|--------------------------------------------------------------------|
B|-----------------------------------------------6^| B------------------|
G|-----------------------------------------------6^| B------------------|
D|-------------------------10^9^7-------------------------------------|
A|--9-9-8-8-8-8-9-10-9-------------9-9-7-7-7-8-9----------------------|
E|--7-7-5-5-5-6-7------10----------7-7-5-5-5-6-7----------------------|

VERSE
E|-------------------------------------------------------------------------|
B|-------------------------------------------------------------------------|
G|------------------PM-----------------------------------------------------|
D|-----------------====----====-------------------------------------9------|
A|---9-9-7-7-7-8-9-10-9-==-10-9--====---9-9-7-7-7-8-9--------7-9-10--------|
E|---7-7-5-5-5-6-7------10-------10-9---7-7-5-5-5-6-7-7-9-10---------------|

E|--------------------------------------------------------------------|
B|--------------------------------------------------------------------|
G|--------------------------------------------------------------------|
D|-------------------------10^9^7-------------------| D ST--------------|
A|--9-9-8-8-8-8-9-10-9-------------9-9-7-7-7-8-9----------------------|
E|--7-7-5-5-5-6-7------10----------7-7-5-5-5-6-7----------------------|

CHORUS 4Xs                  4Xs
Eb||-------------------||----------------||
Bb||*-----------------*||*--------------*||
Gb||-------------------||----------------||
Db||-------7-7---------||----------------||
Ab||*--9-9-5-5-7-7----*||*--7-7-7--7-8--*||
Eb||---7-7-----5-5-----||---5-5-5--5-6---||

VERSE
E|-------------------------------------------------------------------------|
B|-------------------------------------------------------------------------|
G|------------------PM-----------------------------------------------------|
D|-----------------====----====-------------------------------------9------|
A|---9-9-7-7-7-8-9-10-9-==-10-9--====---9-9-7-7-7-8-9--------7-9-10--------|
E|---7-7-5-5-5-6-7------10-------10-9---7-7-5-5-5-6-7-7-9-10---------------|

E|--------------------------------------------------------------------|
B|--------------------------------------------------------------------|
G|--------------------------------------------------------------------|
D|-------------------------10^9^7-------------------| D ST--------------|
A|--9-9-8-8-8-8-9-10-9-------------9-9-7-7-7-8-9----------------------|
E|--7-7-5-5-5-6-7------10----------7-7-5-5-5-6-7----------------------|

CHORUS 4Xs                  4Xs
Eb||-------------------||----------------||
Bb||*-----------------*||*--------------*||
Gb||-------------------||----------------||
Db||-------7-7---------||----------------||
Ab||*--9-9-5-5-7-7----*||*--7-7-7--7-8--*||
Eb||---7-7-----5-5-----||---5-5-5--5-6---||

E|-19-19-19-19-19-19-19-19----------------------------------17-17-17-17-17-17-17-17----------|
B|-19-19-19-19-19-19-19-19--17^b-15----15----------------15-17-17-17-17-17-17-17-17----------|
G|----------------------------------16----16-14-16-14-16-------------------------------------|
D|-------------------------------------------------------------------------------------------|
A|-------------------------------------------------------------------------------------------|
E|-------------------------------------------------------------------------------------------|

E|-19-19-19-19-19-19-19-19--22^b-22^b-22^b---------------------------------------------------|
B|-19-19-19-19-19-19-19-19------------------15-15-17-15-15-18-18-18-18-----------------------|
G|------------------------------------------16-16-16-16-16------------16-16-16---16~~~~~~~---|
D|-------------------------------------------------------------------------------------------|
A|-------------------------------------------------------------------------------------------|
E|-------------------------------------------------------------------------------------------|

E|--16-16-16-16-16-17-17-17-17-17---19-19-19-19-19-19-19-19-19-19-19-19-19-19-19-19-19-19-19-|
B|----------------------------------18-18-18-18-18-18-18-18-18-18-18-18-18-18-18-18-18-18-18-|
G|-------------------------------------------------------------------------------------------|
D|-------------------------------------------------------------------------------------------|
A|-------------------------------------------------------------------------------------------|
E|-------------------------------------------------------------------------------------------|

E|-------------------------------------------------------------------------|
B|-------------------------------------------------------------------------|
G|------------------PM-----------------------------------------------------|
D|-----------------====----====-------------------------------------9------|
A|---9-9-7-7-7-8-9-10-9-==-10-9--====---9-9-7-7-7-8-9--------7-9-10--------|
E|---7-7-5-5-5-6-7------10-------10-9---7-7-5-5-5-6-7-7-9-10---------------|

E|-------------------------------------------------------------------------|
B|-----------------------------------------------------6^b-----------------|
G|------------------PM---------------------------------6^b-----------------|
D|-----------------====----====--------------------------------------------|
A|---9-9-7-7-7-8-9-10-9-==-10-9--====---9-9-7-7-7-8-9----------------------|
E|---7-7-5-5-5-6-7------10-------10-9---7-7-5-5-5-6-7----------------------|

VERSE
E|-------------------------------------------------------------------------|
B|-------------------------------------------------------------------------|
G|------------------PM-----------------------------------------------------|
D|-----------------====----====-------------------------------------9------|
A|---9-9-7-7-7-8-9-10-9-==-10-9--====---9-9-7-7-7-8-9--------7-9-10--------|
E|---7-7-5-5-5-6-7------10-------10-9---7-7-5-5-5-6-7-7-9-10---------------|

E|--------------------------------------------------------------------|
B|--------------------------------------------------------------------|
G|--------------------------------------------------------------------|
D|-------------------------10^9^7-------------------| D ST--------------|
A|--9-9-8-8-8-8-9-10-9-------------9-9-7-7-7-8-9----------------------|
E|--7-7-5-5-5-6-7------10----------7-7-5-5-5-6-7----------------------|

CHORUS 4Xs                  4Xs
Eb||-------------------||----------------||
Bb||*-----------------*||*--------------*||
Gb||-------------------||----------------||
Db||-------7-7---------||----------------||
Ab||*--9-9-5-5-7-7----*||*--7-7-7--7-8--*||
Eb||---7-7-----5-5-----||---5-5-5--5-6---||

OUTRO
E|-------------------------------------------------------------------------|
B|-------------------------------------------------------------------------|
G|------------------PM-----------------------------------------------------|
D|-----------------====----====-------------------------------------9------|
A|---9-9-7-7-7-8-9-10-9-==-10-9--====---9-9-7-7-7-8-9--------7-9-10--------|
E|---7-7-5-5-5-6-7------10-------10-9---7-7-5-5-5-6-7-7-9-10---------------|

E|-------------------------------------------------------------------------|
B|-----------------------------------------------------6^b-----------------|
G|------------------PM---------------------------------6^b-----8-----------|
D|-----------------====----====--------------------------------9-| END-------|
A|---9-9-7-7-7-8-9-10-9-==-10-9--====---9-9-7-7-7-8-9----------9-----------|
Eb|---7-7-5-5-5-6-7------10-------10-9---7-7-5-5-5-6-7----------7-----------|
Outros vídeos desta música
    10 exibições
      • ½ Tom
      • A
      • Bb
      • B
      • C
      • Db
      • D
      • Eb
      • E
      • F
      • F#
      • G
      • Ab
    • Adicionar à lista

    Afinação da cifra

    Afinador online

      0 comentários

      Ver todos os comentários

      Entre para o Cifra Club PRO

      Tenha acesso a benefícios exclusivos no App e no Site

      • Chega de anúncios

      • Badges exclusivas

      • Mais recursos no app do Afinador

      • Atendimento Prioritário

      • Aumente seu limite de lista

      • Ajude a produzir mais conteúdo

      Cifra Club Pro

      Aproveite o Cifra Club com benefícios exclusivos e sem anúncios
      Cifra Club Pro
      Aproveite o Cifra Club com benefícios exclusivos e sem anúncios
      OK